Smells Like Teen Spirit -- Solo

2X
E|--------------------------------------------
B|--------------------------------------------
G|----8-10---8/8b8-6-5-----------------------
D|-10------6-----------11-10-8-6-11/11b11-6-5
A|--------------------------------------------
E|--------------------------------------------

1X
E|--------------
B|--------------
G|--------------
D|-6-5-6-5-6-5-3
A|--------------
E|--------------

3X
E|-------------------|
B|-------------------|
G|-------------------|
D|-6-5-6-5-6-5-6-5-3-|
A|-------------------|
E|-------------------|




Ваше мнение



Капча