Song: Sifting
Artist: Nirvana
Album: Bleach
Tabbed By: Cheran Shunmugavel
[email protected]

This is a really cool, yet really simple song to learn. I don't know
how many times exactly each riff is played, but it's pretty easy to
figure out.

Intro
G-----------
D-----------
A--------.--
E--0-0-0-0--

Verse
G--------------------------
D--------------------------
A--------3----------2-1-0--
E--0-0-0------0-0-0--------

Pre-Chorus
G------------
D------------
A--------5---
E--0-0-0-----

Chorus
G---------------------------------
D---------------------------------
A--0--0-0-3--3-3------------------
E----------------5^5-4^4-3^3-2^2--

The last time through the chorus, instead of playing the E-string bends,
just play a 2 on the A string.

The bridge is the same as the intro, except sometimes, instead of open
E's, he plays F's or G flat's.




Ваше мнение



Капча