From: [email protected] (Ritchie Eppink)
Subject: TAB: NIRVANA "Scoff"
Date: Sat, 16 Apr 1994 22:49:07 GMT

Kurdt played Scoff in both drop-D and in his various version of standard
tuning...here I have tabbed it for standard tuning, but its somewhat easier
if you tune down...
The verse part ("In my eyes..."):
D--4-4-3-2-4-4-3-|-4-4-3-2-4-4-3-||
A--4-4-3-2-4-4-3-|-4-4-3-2-4-4-3-|| repeat numerous times
E--2-2-1-0-2-2-1-|-2-2-1-0-2-2-1-||
Bridge ("Gimme back my alcohol...")
G--2---------2-------||
D--2-4-4-4---2-4-4-4-||
A--0-4-4-4---0-4-4-4-|| repeat several times
E--0-2-2-2---0-2-2-2-||
Then, come out of the bridge:
G--2-----------------||
D--2-4-4-5-5-6-6-7-7-||
A--0-4-4-5-5-6-6-7-7-||
E--0-2-2-3-3-4-4-5-5-||
Then, the chorus ("Give, me your...")
D-10--10-10-10-9-8-|-12--12-12-12-12-11-10-9-||
A-10--10-10-10-9-8-|-12--12-12-12-12-11-10-9-|| repeat several times
E--8---8--8--8-7-6-|-10--10-10-10-10--9--8-7-||
Then, the verse...and the bridge...and the chorus...
then the magnificient and wonderful solo:
hold hold hold hold
B--------------|-----------5----|-----------5----|-----------5----|
G--4------5----|-4------5-(5)---|-4------5-(5)---|-4------5-(5)---|
D--4---4-(4)---|-4---4-(4)(4)---|-4---4-(4)(4)---|-4---4-(4)(4)---|
A--4---4-(4)---|-4---4-(4)(4)---|-4---4-(4)(4)---|-4---4-(4)(4)---|
E--2---2-(2)---|-2---2-(2)(2)---|-2---2-(2)(2)---|-2---2-(2)(2)---|
B--6-5-6-5-6-5-6--/|-8-7-8-7-8-7-8--/|--10--\||
G--6-5-6-5-6-5-6--/|-8-7-8-7-8-7-8--/|--10--\||
D--6-5-6-5-6-5-6--/|-8-7-8-7-8-7-8--/|--10--\|| repeat once, slide to verse
A------------------|-----------------|-------||
E------------------|-----------------|-------||
then the verse, bridge, chorus, and fine.
If I get the chance soon--Big Cheese, Lounge Act
gud,
JEZMUND, TFB
=============================================================================
JEZMUND, TFB
[email protected]
"I don't know.........
........but we might need the 409 on this one..."
=============================================================================
finger for today's adage from FRANK* * *email for a copy of the BOOK OF FRANK
HAHAHAHAHAHAHAHAHAHAHAHAHAHAHAHAHAHAHAHAHAHAHAHAHAHAHHAHAHAHAHAHAHAHAHAHAHAHA

From: [email protected]
Date: Wed, 7 Feb 1996 09:44:46 -0500
Subject: Tab: Scoff by Nirvana from their first ALBUM "Bleach"
Scoff
By Nirvana
As performed on their first album "Bleach"
Tabbed by.- Daniel
bf= bend full
. = palm mute
\ = slide
Intro & Verse.- Chorus.-
|-----------------------------|--------------------------------------------|
|o---------------------------o|o------------------------------------------o|
|-----------------------------|--------------------------------------------|
|-----------------------------|--------------------------------------------|
|o-4--4---3---2---4--4---3---o|o-4---4------3---0----3---0----------------o|
|--2--2---1---0---2--2---1----|--2---2-------------------------------------|
. . . . . . .
"Give me your" part
|----------------------------------|------------------------|
|o--------------------------------o|o----------------------o|
|---5---5---5---3----7--7--7-------|--9--9--8--7---9--9--8--|
|---5---5---5---3----7--7--7-------|--9--9--8--7---9--9--8--|
|o--3---3---3---1----5--5--5------o|o-7--7--6--5---7--7--6-o|
|------------------------------5bf-|------------------------|
Solo.-
|---------*5-----------5------||---------------------------------------------|
|o-----*5-----------5-----5--o||o-7--6--7--6--7--6--7--6---9--8--9--8--9--8--|
|-----------------------------||--7--6--7--6--7--6--7--6---9--8--9--8--9--8--|
|---4-----------4-------------||---------------------------------------------|
|o--4-----------4------------o||o--------------------------------------------|
|-**2-----------2-------------||---------------------------------------------|
* picked randomly
** let ring the note
let ring
|----------------------------||
|-9--8---11----------(11)\--o||
|-9--8---11----------(11)\---||
|----------------------------||
|---------------------------o||
|----------------------------||
That's all, any comments, suggestions, or whatever goes through your lazy
mind. [email protected]
[email protected]***********
****************************************************************************
********
From alt.guitar.tab Mon Apr 18 14:40:46 1994
Xref: news.tcd.ie alt.guitar.tab:22308 rec.music.makers.guitar.tablature:15381
Newsgroups: alt.guitar.tab,rec.music.makers.guitar.tablature
Path:
news.tcd.ie!ieunet!EU.net!howland.reston.ans.net!europa.eng.gtefsd.com!emory
!darwin.sura.net!hearst.acc.Virginia.EDU!murdoch!Hopper.itc.Virginia.EDU!rte
From: [email protected] (Ritchie Eppink)
Subject: TAB: NIRVANA "Scoff"
Message-ID:
Sender: [email protected]
Organization: Public Access Internet at UVa.
Date: Sat, 16 Apr 1994 22:49:07 GMT
Lines: 68

Kurdt played Scoff in both drop-D and in his various version of standard
tuning...here I have tabbed it for standard tuning, but its somewhat easier
if you tune down...
The verse part ("In my eyes..."):
D--4-4-3-2-4-4-3-|-4-4-3-2-4-4-3-||
A--4-4-3-2-4-4-3-|-4-4-3-2-4-4-3-|| repeat numerous times
E--2-2-1-0-2-2-1-|-2-2-1-0-2-2-1-||
Bridge ("Gimme back my alcohol...")
G--2---------2-------||
D--2-4-4-4---2-4-4-4-||
A--0-4-4-4---0-4-4-4-|| repeat several times
E--0-2-2-2---0-2-2-2-||
Then, come out of the bridge:
G--2-----------------||
D--2-4-4-5-5-6-6-7-7-||
A--0-4-4-5-5-6-6-7-7-||
E--0-2-2-3-3-4-4-5-5-||
Then, the chorus ("Give, me your...")
D-10--10-10-10-9-8-|-12--12-12-12-12-11-10-9-||
A-10--10-10-10-9-8-|-12--12-12-12-12-11-10-9-|| repeat several times
E--8---8--8--8-7-6-|-10--10-10-10-10--9--8-7-||
Then, the verse...and the bridge...and the chorus...
then the magnificient and wonderful solo:
hold hold hold hold
B--------------|-----------5----|-----------5----|-----------5----|
G--4------5----|-4------5-(5)---|-4------5-(5)---|-4------5-(5)---|
D--4---4-(4)---|-4---4-(4)(4)---|-4---4-(4)(4)---|-4---4-(4)(4)---|
A--4---4-(4)---|-4---4-(4)(4)---|-4---4-(4)(4)---|-4---4-(4)(4)---|
E--2---2-(2)---|-2---2-(2)(2)---|-2---2-(2)(2)---|-2---2-(2)(2)---|
B--6-5-6-5-6-5-6--/|-8-7-8-7-8-7-8--/|--10--\||
G--6-5-6-5-6-5-6--/|-8-7-8-7-8-7-8--/|--10--\||
D--6-5-6-5-6-5-6--/|-8-7-8-7-8-7-8--/|--10--\|| repeat once, slide to verse
A------------------|-----------------|-------||
E------------------|-----------------|-------||
then the verse, bridge, chorus, and fine.
If I get the chance soon--Big Cheese, Lounge Act
gud,
JEZMUND, TFB
=============================================================================
JEZMUND, TFB
[email protected]
"I don't know.........
........but we might need the 409 on this one..."
=============================================================================
finger for today's adage from FRANK* * *email for a copy of the BOOK OF FRANK
HAHAHAHAHAHAHAHAHAHAHAHAHAHAHAHAHAHAHAHAHAHAHAHAHAHAHHAHAHAHAHAHAHAHAHAHAHAHA




Ваше мнение



Капча