Nirvana
Written By Kurt Cobain
Album Bleach
Tabbed By Sean McEwen
Verse
|-------------------------------------|
|-------------------------------------| |-------------------------------------|
|-------------------------------------|
|-------------------------------------|
|----0-0-0-5^-0-5^-0-0-0-0-0-5^-------|
Repeat Verse 8 Times
Chorus:
|-----------------------------------------------------------------------|
|-----------------------------------------------------------------------|
|--5-5-5-5-5--2-2-2-2-2-2-----------------7-7-7--5-5-5-5-5--2-2-2-2-2-2-|
|--5-5-5-5-5--2-2-2-2-2-2--2-2-2-2-2-2-2--7-7-7--5-5-5-5-5--2-2-2-2-2-2-|
|--3-3-3-3-3--0-0-0-0-0-0--2-2-2-2-2-2-2--5-5-5--3-3-3-3-3--0-0-0-0-0-0-|
|--------------------------0-0-0-0-0-0-0--------------------------------|
Then Go Back Into The Verse Or If Its The Second Chorus The Bridge and Solo Below
Bridge And Solo
|----------------------------------------------------------------------|
|-----------------------------15-15-15/--------------------------------|
|-----------------12------12--13-13-13/------------------12-12-12------|
|--------11-11----11--11--11--------------------11-11----11-11-11-0----|
|--------10-10-X--------------------------------10-10-11---------------|
|--0-0-0----------------------------------0-0-0-------------------19/--|
Solo
|-------------------------------------------------------------------|
|--2^--2^--2------2^--2---------------------------------------------|
|--2^--2^--2---0--2^--2--0---------------2^-0-2^2-0--------7--------|
|--------------------------2-0-2-0-----------------2/7-7-7-7-7/9-11/|
|-------------------------------------------------------------------|
|----------------------------------3/--0----------------------------|
|-----------------------------------------------------------------------|
|-----0------------------------------------------------------------ 2/7-|
|--/9---9/7/0--2--2-2-2-2-2-----------0-2-0-0-2^--0---------2-5-2-5-----|
|-------------------------------0--0----------------2-5/0-5-------------|
|-----------------------------------------------------------------------|
|-----------------------------------------------------------------------|




Ваше мнение



Капча