Pay To Play - Nirvana

intro/verse riff chorus riff (x3) chorus outro
G|------------------|-------------------|-------------------|
D|00-03----33-------|00-3---23-333330---|00-3---23-333330---|
A|-----22-2---33034-|----222---------34-|----222---------30-|
E|------------------|-------------------|-------------------|

bridge
G|------------------------------------------------------------------------|
D|0-0-0--0-2h30------------------4----0-0-0--0-303/5530---------444-4444--|
A|-----3-------430------4--44---4--4-0-----3--------------4--41---------0-|
E|----------------43-2-2--2---22-----------------------2-2--2-------------|

tabbed by Achilles ([email protected])




Ваше мнение



Капча