Oh The Guilt
By Nirvana

Tuning Ѕ step down (Eb,Ab,Db,Gb)

Intro

|-----------------------------------------|
|-----------------------------------------|
|-----------------------------------------|
|---5-5-5--5-5-5--5-5-5--5-5-4b-3-0-------|

Pre Chorus
|--------------------|
|--------------------|
|---------------7----|
|---5-5-5-3b-0-------| b means bend
or if you don't want to bend the string
play this
|--------------------|
|--------------------|
|----------------7---|
|--5-5-5-4h5p4-0-----|

Chorus
1st time 2nd time
|-------------------------------|-------|------|
|-------------------------------|-------|------|
|---------------------3-3-3-3-3-|-------|-5--5-|
|---5-5-5-5--2-2-2-2------------|-0-2-3-|------|

Tabbed By Jay




Ваше мнение



Капча