=========================
Алексашкин Артем
[email protected]
http://alexartwww.narod.ru/
=========================
Nirvana - Oh Me

Аккорды:
E D C G Dadd9 Dsus4(add9)
1|--0--2--0--3--0-----0------------------------------------------------
2|--0--3--1--0--3-----3------------------------------------------------
3|--2--2--0--0--2-----0------------------------------------------------
4|--2--0--2--0--0-----4------------------------------------------------
5|--1--0--3--2--0-----5------------------------------------------------
6|--0--0--0--3--0-----0------------------------------------------------

Куплет:
E
1|----------------|----0---------------|-------0--0-0---0--------------
2|----------------|----0---------------|-------3--3-3---3--------------
3|----------------|----1---------------|-------0--0-0-0----------------
4|----------------|----2---------------|-------4--4-4-4----------------
5|-------------7-|----2-----------75-|-5--5----------------------75-
6|--4--5/7--7-----|-0--0---4--5/7------|-------------------4--5/7------

E
1|--------0-----0-------------------------|----------0-----------------
2|--------3-----3------------------X------|----------0-----------------
3|--0-----0--0-------------0-------X--(0)-|----------1-----------------
4|--4--------4------2---------2/4---------|----------2-----------------
5|--5--5------------3---3-----3/5---------|----------2--------------7-
6|----------------------------------------|--0----0--0-----4--5/7------

E D D Dsus4(add9) C Dsus4(add9) E

E E
If I had to lose a mile
Dsus4(add9)
If I had to touch feelings
C
I would lose my soul
Dsus4(add9) E
The way I do

E
I don't have to think
Dsus4(add9)
I only have to do it
c
The results are always perfect,
Dsus4(add9) E
but that's old news

E
Would you like to hear my voice
C
Sweetened with emotion?
Dadd9 E
Invented at your birth.

G E G E
I can't see the end of me
G E G E
My whole expanse I cannot see
C D
I formulate infinity
Dsus4(add9) E
Stored deep inside of me

Проигрыш:
C E E G D Dsus4(add9) D Dsus4(add9) C Dsus4(add9) E E

E E
If I had to lose a mile
Dsus4(add9)
If I had to touch feelings
C
I would lose my soul
Dsus4(add9) E
The way I do

E
I don't have to think
Dsus4(add9)
I only have to do it
c
The results are always perfect,
Dsus4(add9) E
but that's old news

E
Would you like to hear my voice
C
Sweetened with emotion?
Dadd9 E
Invented at your birth.

G E G E
I can't see the end of me
G E G E
My whole expanse I cannot see
C D
I formulate infinity
Dadd9 E
inside of me

Финал композиции:

C D Dadd9

E C D Dadd9 E

E C D Dadd9 E

E C D Dsus4(add9) E

1|--3--------------------5----------------------7---
2|-----3--------------------5-------------------7---
3|--------5---------5/7--------7-----------7/9--9---
4|---------------5----------------7-----7-------9---
5|------------3----------------------5----------7---
6|----------------------------------------------0---

1|--7-----------------------7---------|--3----------------------
2|-----7-----------------7-----7------|-----3-------------------
3|--------9-----------9-----------9--|--------5-----------5/7--
4|-----------9-----9------------------|-----------5-----5-------
5|--------------7---------------------|--------------3----------
6|------------------------------------|-------------------------

1|---------------5--------|--0---
2|------------5-----5-----|--0---
3|---------7-----------7--|--1---
4|------7-----------------|--2---
5|---5--------------------|--2---
6|------------------------|--0---




Ваше мнение



Капча