From: Denise Kennedy

(New Wave Polly) by Nivana

Verses
-------------------------------------------------
-------------------------------------------------
---------------------------5--5----3----3--3--2
---0----0--3--3----2/3-------------------------

Chorus
-------------------------------------------------------------------
-------------------------------------------------------------------
---5----3----3--3--2----------1----1--1--0--5----3----3--3--2
------------------------3--3--------------------------------------




Ваше мнение



Капча