From: [email protected] (sam razialruh)
negative creep
You have to tune your guitar in another way:
1. Tune in a way that you can play "About a girl"(I hope you
can play it) with E5 G5
2. Then detune the E-string to a D
E
B
G
D
A
D
(I don't know how to explain in another way, sorry!)
Now play:
E-|---------------------------------------------------------------------------|
B-|---------------------------------------------------------------------------|
G-|---------------------------------------------------------------------------|
D-|---------------------------------------------------------------------------|
A-|-0-0-----------------------------------------------------------------------|
E-|-0-0-...---sometimes-you-have-to-play-another-note,-I-think-A-or-B----------|
E-|---------------------------------------------------------------------------|
B-|---------------------------------------------------------------------------|
G-|---------------------------------------------------------------------------|
D-|--7--7-------------8--8----------------------------------------------------|
A-|--5--5--4-4---7-7--6--6----------------------------------------------------|
E-|--------4-4---7-7----------------------------------------------------------|
Chorus
I hope it is right!!!
PLEASE correct if something is wrong!!!
thank you
sam
--
R idiculous
A ttitudes
C aused by
I gnorance in
S ocietys
M ind
--- Evan Seinfield ---
* sam razialruh - ulm germany - [email protected] *




Ваше мнение



Капча