Date: Sat, 6 Jan 1996 17:26:21 +0800 (MYT)
From: Onn-Jian Lim
Subject: TAB:Mr Moustache by Nirvana
From: Onn-Jian Lim
Mr Moustache
by Nirvana
From the album: Bleach
This song is one of those songs you tend to loathe at first, but
then they sink inside you. The main riff is pretty easy......until you try
to play it as fast as Kurt did. Play this song with heavy distortion.
Normal tuning
Main riff:
D|-------------------|------------------|
A|------2------------|---1--------------|
E|----3---3-2-1-0-1-2|-3---3-2-1-0-1-2--|
Riff A
G
E|-----------------|
B|-----------------|
G|-----------------|
D|----0-0----------|
A|----2-2----------|
E|----3-3-0-1-2-2--|
Intro: Play the main riff 4 times, followed by Riff A played 4 times
Verse: Use Riff A throughout the verse until the part where Kurt sings "Yes
I eat cow, I am not proud" then play either:
a) the main riff 2 times after the first/third verse
b) the main riff 4 times after the second/forth verse
Chorus
B C G
E|-----------------------|
B|-----------------------|
G|----4-x-5-5-5----------|
D|----4-x-5-5-5-5-5-5-5--| played 4 times
A|----2-x-3-3-3-5-5-5-5--|
E|--------------3-3-3-3--|
A C Eb
E|-------------------------------------|
B|-------------------------------------|
G|--------------------5-5-5-5-6-6-6-6--|
D|----7-7-7-7-7-7-7-7-5-5-5-5-6-6-6-6--| played a couple of times
A|----7-7-7-7-7-7-7-7-3-3-3-3-6-6-6-6--|
E|----5-5-5-5-5-5-5-5------------------|
The ending is just the main riff being played over and over getting slower
and slower until it finally ends on a G
Lyrics
________________________________________
Verse 1 and 3
Fill me in on your new vision, wake me up with indecision
Help me trust your mighty wisdom
Yes I eat cow, I am not proud
Verse 2 and 4
Show me how you question question, lead the way to my temptation
Take my hand and give it cleaning,
Yes I eat cow, I am not proud
Chorus
Easy in an easy chair
Poop as hard rock
I don't like you anyway
Seal it in box
Now You
_________________________________________
Questions, comments, corrections, or something else, send them to me at
Thanks.

From: [email protected]
Date: Wed, 7 Feb 1996 10:06:25 -0500
Subject: TAB.- Mr. Moustache.tab as performed by Nirvana
Mr. Moustache
As performed by Nirvana on Bleach
Tabbed by.- Daniel
Intro.-
|-------------------------------------------------|
|o-----------------------------------------------o|
|-------------------------------------------------| ?X
|-------------------------------------------------|
|o----2-----------------------1------------------o|
|--3-----3--2--1--0--1--2--3-----3--2--1--0--1--2-|
Verse.-
|-------------------------|------------------------------------------------|
|o-----------------------o|o-----------------------------------------------|
|---------*---------------|--4-----5--5--5-----------------------4-----5---|
|--5--5----X--X--X--X-----|--4-----5--5--5---5--5--5--5--5--5----4-----5---|
|o-5--5----X--X--X--X----o|o-2--0--3--3--3---5--5--5--5--5--5----2--0--3---|
|--3--3----X--X--X--X-----|------------------3--3--3--3--3--3--------------|
* "mute" strings with more than one finger by second or first fret
|-------------------------|--------------------------|
|------------------------o|o------------------------o| * Do stacatto in some
|--5--5-------------------|---*----------------------| of the notes, listen
|--5--5---5--5--5--5--5---|---7---7---7--7--7---5----| to the tape; you'll
|--3--3---5--5--5--5--5--o|o--7---7---7--7--7---5---o| get it ;)
|---------3--3--3--3--3---|---5---5---5--5--5---3----|
"Im you..."
|--------------------------|
|o------------------------o|
|--5---5---5------8--8--8--|
|--5---5---5------8--8--8--|
|o-3---3---3------6--6--6-o|
|--------------0-----------|
That's all, at the end just play the intro, but slower it's really easy, and
end it with a G power chord (355xxx)
Comments or whatever, or just for the hell of it
[email protected]
Note.- Almost every time I play guitar, I play an open chord between each
chord (0xxxxx) or (00xxxx) and that's how I tab it, you may as well not play
that open chord, it's up to you.
Daniel




Ваше мнение



Капча