ALBUM : Incesticide
TUNE : Standard (E,A,D,G,B,E)
COMMENT:
LEGEND :
h - hammer on;
p - pull off;
b - bend;
r - release bend;
~ - vibrato;
/ - slide up;
- slide down;
x - muted;
NH - natural harmonic;

VERSE/CHORUS:

G5 C5 G5 C5
----------------------|
----------------------|
|----------5---5-----------5-5-5--|
|--5---5---5---5---5---5---5-5-5--|
|--5---5---3---3---5---5---3-3-3--|
|--3---3-----------3---3----------|

ENDING:

G5 NH-|
|--------3---3------|
|------5---5---53--|
--------|
|--5---------------|
|--5---------------|
|--3---------------|




Ваше мнение



Капча