#----------------------------------PLEASE NOTE---------------------------------#
#This file is the author's own work and represents their interpretation of the #
#song. You may only use this file for private study, scholarship, or research. #
#------------------------------------------------------------------------------#

Nirvana

Mary (Unplugged)

by Brian S.

Intro/Verses :
C#
e---------------------------------------------------|
b---------------------------------------------------|
g------------------------------/6-6-4-3~~-----------|
d-3-3--4--3-/6~-4-3~~-(4)-(3)-----------------------|
a---------------------------------------------------|
e---------------------------------------------------|

e---------------------------------------------------|
b-------------------------------/6-6-4-2~~----------|
g---------------------------------------------------|
d-3-3--4--3-/6-6-4-3~~-(4)-(3)----------------------|
a---------------------------------------------------|
e---------------------------------------------------|

Chorus :
C#
e--------------------------4------------------------|
b----------------6--6---6--6-----6--6--6--6---------|
g-5-6---6--6--6--6--6---6--6-6---6--6--6--6---------|
d-5-6---6--6--6--6--6---6--6-6---6--6--6--6---------|
a-3-4---4--4--4--4--4---4----4---4--4--4--4---------|
e---------------------------------------------------|
repeat ^^^^^^^^^^^^^^^^^^^^^^^^^^^^^
e---------------------------------------------------|
b--6--------6---------------------------------------|
g--6--6-------6-------------------------------------|
d--6--6--6---------6--6-----------------------------|
a--4-------------4----------------------------------|
e---------------------------------------------------|
Mary!!!!
Mary!!!!

Thats It. Veryyyyy Easy, listen to song for time




Ваше мнение



Капча