Date: Wed, 3 Jan 1996 14:22:19 +0100
From: Anne Helmond
Subject: Nirvana - Marijunana.tab
Nirvana - Marijunana (also known as Moist Vagina) tab
-----------------------------------------------------
Transcribed by: Anne-Paulien Helmond ([email protected])
First of all.. this is the first song I've ever transcribed..
This is one of the best songs Nirvana ever made...
Dropped D-tuning!! (EBGDAD)
MAIN RIFF:
/ = slide
()= somtimes you hear that string, and sometimes you don't...
E |--------------------0--|
B |-------------------(0)-|
G |-----------------------|
D |--(0)-(0)-/-(2)-(2)----|
A |--(0)-(0)-/-(2)-(2)----|
D |---0---0--/--2--(2)----|
That's the main riff... I can't figure out the disortion parts
since I don't have an electric guitar :(
Probably it's somthing like this:
E |-----------|
B |-----------|
G |-----------|
D |--0-0/2-2--|
A |--0-0/2-2--|
D |--0-0/2-2--|
If you want to donate money to me to buy a Fender Stratocaster
e-mail me for my bank account numer!!
Actually the main riff is played by the bass, but it sounds
good on guitar too! (and on an acoustic guitar too, since I
only have an acoustic guitar)
The 'solo': I don't have a clue, just jam around on your E and B string...
If you have corrections, suggestions, or you've figured out the disortion
parts and/or the solo correctly, or if you want to know my bank account
number ($$$) for the Fender, e-mail me at [email protected]
Ok, thanx for listning!!
Anne
PS My guitar teacher made some corrections on Marigold (and figured out how
to play guitar 1 and 2 at the same time) check it out!
Date: Fri, 29 Dec 1995 21:57:07 +0800 (MYT)
From: Onn-Jian Lim
Subject: TAB CORRECTION:Moist Vagina by Nirvana
Chorus:
A C E F# E F#
E|-0-0-0-0-0-0-0-0-0-0-0-0-0--|-----------------|-----------------|
A|-2-2-2-2-2-2-1-1-1-1-1-1-1--|-----------------|-----------------|
G|-2-2-2-2-2-2-0-0-0-0-0-0-0--|-1-1-1-1-3-3-3-3-|-1-1-1-1-3-3-3-3-|
D|-2-2-2-2-2-2-2-2-2-2-2-2-2--|-2-2-2-2-4-4-4-4-|-2-2-2-2-4-4-4-4-|
A|-0-0-0-0-0-0-3-3-3-3-3-3-3--|-2-2-2-2-4-4-4-4-|-2-2-2-2-4-4-4-4-|
E|----------------------------|-0-0-0-0-2-2-2-2-|-0-0-0-0-2-2-2-2-|
E F#
E|-----------------|
A|-----------------|
G|-1-1-1-1-3-3-3-3-|
D|-2-2-2-2-4-4-4-4-|
A|-2-2-2-2-4-4-4-4-|
E|-0-0-0-0-2-2-2-2-|




Ваше мнение



Капча