Nirvana
In Bloom(Very Correct)
Tabbed by David Hull
EADGBE
D=Strum down
U=Strum up
X=mute strings with fretting hand
First Intro2Times
----------------------------------------------------------------------
-------------------------------------------------------
-------------------------------------------------------
--8--8-8-\-5-5-3--3-3-/-6-6----------------------------------------
--8--8-8-\-5-5-3--3-3-/-6-6----------------------------------------
--6--6-6-\-3-3-1--1-1-/-4-4----------------------------------------
Then-Second Intro2X
-------------------------------------------
------------------------------------------
------------------------------------------
---------8-8-8-8-8-8-x-5-5-5-5-5-5-x-8-/--12-12-12-12-12-12-x--8-8-8-7-7-7--------
---------8-8-8-8-8-8-x-5-5-5-5-5-5-x-8-/--12-12-12-12-12-12-x--8-8-8-7-7-7----------
---------6-6-6-6-6-6-x-3-3-3-3-3-3-x-6-/--10-10-10-10-10-10-x--6-6-6-5-5-5----------
strum D U D U D D D U D U D D D D U D U D D D U D D U D
Verse(Clean)
-------------------------------------------------------------------
-------------------------------------------------------------------
--5-5-5-5-5-5-X-2-2-2-2-2-2-X-5/7-7-7-7-7-7-7-X-5-5-5--4-4-4------
--5-5-5-5-5-5-X-2-2-2-2-2-2-X-5/7-7-7-7-7-7-7-X-5-5-5--4-4-4------
--3-3-3-3-3-3-X-0-0-0-0-0-0-X-3/5-5-5-5-5-5-5-X-3-3-3--2-2-2------
-------------------------------------------------------------------
D U D U D D D D U D U D D D D U D U D D D D U D D U D
chorus 4X ] then
----------------]-----------------------
----------------]----------------------
----------------]----------------------
-8-8-8-8-5-5-5-5]--8-8-8-8--12-12-12-12------------------------
-8-8-8-8-5-5-5-5]--8-8-8-8--12-12-12-12------------------------
-6-6-6-6-3-3-3-3]--6-6-6-6--10-10-10-10---------------------
D U D D D U D D D U D D D U D D
|--^---------^--------------------------------------|
|--8---8888--6--6666-----------------------------)---------)-)----|
|--------------------------7-9-10-9-10-9-7-9-7-10-9-7-9---7-9-7-10-9-7-9|
|-------------------------------------------------------|
|-------------------------------------------------------|
|-------------------------------------------------------|
)
|---^------------------------------------)--)--8----)--)-------------|
|--12------------------------------------12-13--------10-10-9-9--7-7-5-5|
|-------12-14-14-15-15-17-----------------------------------|
|----------------------------------------------------------------------|
|----------------------------------------------------------------------|
|----------------------------------------------------------------------|




Ваше мнение



Капча