Hollywood Rock Fest 93
Nirvana

This isn't actually a song but its a bass
solo by Krist Novoselic
1st part
|---6----------------------|
|-----6-6-6-8p64-6--------|
|-------------------6------|
|--------------------------|

2nd part
|---6-------------------|
|----4-4-4-5-5-5-6-6-6--|
|-----------------------|
|-----------------------|x3
then
|---6---------------|
|-----4-4-4--5--6---|
|-----------------6-|
|-------------------|
then play the 1st part again




Ваше мнение



Капча