From: [email protected]
Date: Sat, 24 Jun 1995 22:18:38 -0400
Subject: Here She Comes Now-nirvana

I have attached the song "Here She Comes Now" in tab form below. It was
writtne by a band called the Velvet Underground but Nirvna often played it.
It is tabbed to the way Nirvana played it so therefore I think it should go
under the Nirvana file.
--------------------------------------------------------
Here She Comes Now
By:The Velvet Underground
Tabbed to Kurt Cobain's version of the song.
Transcribed by [email protected]
Version on the Nirvana Heart Shaped Box II Set.

/=slide up
\=slide down

INTRO-(*let 0 on string D ring)
|-----------------------------------------------------------------------------
-----------------------------------------------|
|-------------7----------7---------------------12--------------10-------------
-------------------------------------------|
|---------7------7--7-------7----7/11--11-------11\9--9-------9---------------
-------------------------------------|
|----0------------------------------------------------------------------------
----------------------------------------------|
|-----------------------------------------------------------------------------
-----------------------------------------------|
|-----------------------------------------------------------------------------
-----------------------------------------------|
INTRO 2 and INTERLUDE-(*let 0 on string D ring)
|-----------------------------------------------------------------------------
-----------------------------------------------|
|---------------7----------7------------------12--------------10---10---------
------------------------------------------|
|---------7----7---7--7--7--7--7/11-11--11---11\9--9--9----9------------------
----------------------------------|
|----0------------------------------------------------------------------------
----------------------------------------------|
|-----------------------------------------------------------------------------
-----------------------------------------------|
|-----------------------------------------------------------------------------
-----------------------------------------------|
VERSE--(*let 0 on string D ring)
|-----------------------------------------------------------------------------
-----------------------------------------------|
|---------------7---------7---------------------------------------------------
---------------------------------------------|
|----------7--------7----------(play the 0 once then play the 7 7 part for
the rest of the verse)--------|
|----0------------------------------------------------------------------------
-----------------------------------------------|
|-----------------------------------------------------------------------------
------------------------------------------------|
|-----------------------------------------------------------------------------
------------------------------------------------|
CHORUS
D-x577xx
C-x355xx
B5-x133xx
I'm not going to tell you the timing and strumming but I will tell you the
order.
It is -D C D C B5
SOLO-I have no clue so good luck.
Send comments, suggestions, and corrections to [email protected]
--------------------------------------------------------




Ваше мнение



Капча