HELP ME

Tuning:Standard
The bass chords in the verse G F A E
CHORUS
-------------I----------------I
-------------I----------------I
-------------I----------------I
5-5-5-3------I-7-7-7-5--3-3-3-I
5-5-5-3------I-7-7-7-5--3-3-3-I
3-3-3-1--0-0-I-5-5-5-3--1-1-1-I
and that with lots of mistakes and variations...:)
Somewhere in the 3rd verse Kurt plays the same as Krist so... :P
G5 F5 A5 E5
---------------I----------------I
---------------I----------------I
---------------I----------------I
5-5-5-3--3-3-0-I-7-7-7-2--2-2-0-I
5-5-5-3--3-3-0-I-7-7-7-2--2-2-0-I
3-3-3-1--1-1-0-I-5-5-5-0--0-0-0-I




Ваше мнение



Капча