----------------------------------------------------------------------------
Even In His Youth (Solo)- Nirvana
----------------------------------------------------------------------------
Tabbed by: Adam Stagat
Email:[email protected]
Tuning:Standard (EADGBe)
e|-------------------------------------|-----------------------------------|
B|-------------------------------------|-----------------------------------|
G|---5-----------------------6-5-3-----|----------------------3-6-5-3-5----|
D|---5--------3-5-5-5^5-3-5--------5-3-|--------3-5-5-5^5-3-5--------------|
A|---3---3-5---------------------------|-3--3-5----------------------------|
E|-------------------------------------|-----------------------------------|
last line
e|-------------------------3-----------------------------------------------|
B|---------------------------5---------------------------------------------|
G|--------------3-5^5-3-5------5-3-----------------------------------------|
D|----------3-5--------------------5---------------------------------------|
A|---3--3-5----------------------------------------------------------------|
E|-------------------------------------------------------------------------|
After this go right into the last chorus




Ваше мнение



Капча