From: [email protected]
Date: Thu, 15 Feb 1996 20:38:22 -0500

Nirvana
Dumb from In Utero
Written by Kurt Cobain (1967-1994)(The greatest Musician of this generation)
tabbed by Shirantha Fernando

TUNING: Down a Half-Step, Low/High Eb Ab Db Gb Bb Eb

verse

E5 A G5 C5
Eb ---------------------------------------|--
Bb ---------------2-----------------------|--
Gb -------------2------------------5-5----|--
Db -----2-----2------------5-----5--------|--
Ab -----2---0--------------5---3----------|--
Eb -0------------------3-3---0------------|--

The chorus is just the same chords, except open.

E A G C
Eb ---0--0--3--0--|-
Bb ---0--2--3--1--|-
Gb ---1--2--0--0--|-
Db ---2--2--0--2--|-
Ab ---2--0--2--3--|-
Eb ---0-----3------|-

Bridge

B C
Eb ------------------------|-
Bb ------------------------|-
Gb ---4-4-4-4-/5-5-5-5-----|-
Db ---4-4-4-4-/5-5-5-5-----|-
Ab ---2-2-2-2-/3-3-3-3-----|-
Eb ------------------------|-

Lyrics:

Verse 1
I'm not like them
But I can pretend
The sun is gone
But I have a light
The day is done
But I'm having fun
I think I'm dumb
or maybe just

Chorus 1
happy
Think I'm just happy

Verse 2
my heart is broke
But I have some glue
help me inhale
And mend it with you
We'll float around
And hang out on clouds
Then we'll come down
And have a

Chorus 2
hangover... have a hangover

Bridge
Skin the sun
Fall asleep
Wish away
The soul is cheap
Lesson learned
Wish me luck
Soothe the burn
Wake me up

Verse 3 (same as verse 1)
I'm not like them
But I can pretend
The sun is gone
But I have a light
The day is done
But I'm having fun
Outro
I think I'm dumb




Ваше мнение



Капча