Drain you
Nirvana
Nevermind
Tabbed by Pepitko

Verse 1 (B5 D#5 G#5 C#5)

B5 D#5 G#5 C#5 B5 D#5 G#5 C#5(dist. ON)
One baby to another says I'm lucky to meet you.
I donot care what you think unless it is about me.
It is now my duty to completely drain you.
A travel through a tube and end up in your infection.

Chorus (E5 C#5)
F#5 E5 C#5
Chew meat for you,
E5 C#5
pass it back and forth.
In a passionate kiss,
from my mouth to yours
B5 A5 G#5
I like you
Verse 2 (B5 D#5 G#5 C#5)

B5 D#5 G#5 C#5 B5 D#5 G#5 C#5
With eyes so dilated I've become your pupil.
You've thaught me everything without a poison apple.
The water is so yellow, I'm a healthy student.
Indebted and so greatful.Vacumed out the fluids.

Here comes Chorus

Bridge:
PM..........normal
dist off.......on
------------------------------------------------
----------------5-------------------------------
------------------------------------------------
----6-----------6-------------------------------
----6-----------6-------------------------------
----4-----------4-------------------------------

These part down here hasn't been played on concerts:
------------------------------------------------
------------------------------------------------
----5--4--3--2--1/--2/--3/--4/--5-----------
----5--4--3--2--1/--2/--3/--4/--5-----------
----5--4--3--2--1/--2/--3/--4/--5-----------
------------------------------------------------

Ah!_____________________
--h---------------------------------------------
-4-5---2/3---(3)--4---5/--6/--7/---8/---10/-----
----------------------------------------10/-----
------------------------------------------------
------------------------------------------------
------------------------------------------------

------------------------------------------------
--14/-------16/------18-------------------------
--14/-------16/------18-------------------------
------------16/------18-------------------------
------------------------------------------------
------------------------------------------------

Here play Verse 1

Chorus:
F#5 E5 C#5
Chew meat for you,
E5 C#5
pass it back and forth.
In a passionate kiss,
from my mouth to yours
Sappy lips to lips
You are my vitamines
B5 A5 G#5
I like you




Ваше мнение



Капча