NIRVANA
DOWNER
_____________________________________________________________________________

Intro (Main riff)
G:-------------------||
D:-------------------||
A:-------------------||
E:-0-0-0-0-0-8-8-8---||

Chorus:
G:------------||
D:------------||
A:------------||
E:-1-1-2-3-2--||

Interlude:
G:----------------------------------||
D:----------------------------------||
A:-----------------0-0-0-0-1-1-1-1--||
E:-0-0-0-0-1-1-1-1------------------||

BY MATTY
PLEASE rate this tab!




Ваше мнение



Капча