From: [email protected]
Date: Mon, 17 Jul 1995 05:15:03 -0400
Subject: Do_You_Love_Me.tab(NIRVANA)

Do You Love Me
by:KISS
tabbed to the way Nirvana played it for Kiss tribute
transcribed by:[email protected]
\=slide down
/=slide up
r=let note ring

INTRO, CHORUS, and part of OUTRO
||---||
||---||
||------3------3-/8r-||
||-3r---3-3r---3-/8r-||
||-3r---1-3r---1-/6r-||
||-1r------1r-||

||---||
||---||
||---||
||-8-\3r-||
||-8-\3r-||
||-6-\1r-||

VERSE
||----------------||
||----------------||
||-5-5-5-5-x--||
||-5-5-5-5-x---||
||-3-3-3-3-x---||
||----------------|| play 3 times
*play strings: down-down-down-up-down

||--||
|---||
||-3-3-3-3-||
||-3-3-3-3-||
||-1-1-1-1-||
||---||

SOLO *listen to song for when to bend note
||---||
||-8-6-5-6-8-6-||
||---||
||---||
||---||
||---|| play 4 times

||---||
||-10-8-7-8-10-8-||
||---||
||---||
||---||
||---|| play 3 times

||---||
||-10-8-7-8-7-6-||
||---||
||---||
||---||
||---|| play once

OUTRO- just screw around and play crappy

Send comments, suggestions, and corrections to [email protected]




Ваше мнение



Капча