Bass Intro Riff
1|------------------------------------------------------|
2|------------------------------------------------------|
3|------------------------------------------------------|
4|------------------------------------------------------|
5|--------------------2--2--2-------------------2--2--2-|
6|-2--0--2--0--2--0------------2--0--2--0--2--0---------|
Geetar Intro
E|-----------------------------------|
B|-----------------------------------|
G|------------------------------/9---|repeat then on last on slide on A Down
D|-4--0--4--4--0--4-----2-2-----/9---|Neck then up
A|-4--0--4--4--0--4--0--2-2-----/7---|
E|-2--0--2--2--0--2--0---------------|
Verse
E|-----------------|
B|-----------------|
G|-----------------|
D|----------4------|
A|-----------------|
E|--2--2--4--------|
pick me, pick me yeah
Pre Chorus + Chorus
E|--------------------------------------------------|
B|--------------------------------------------------|
G|--4--4---6-6--------------------------7-----------|Repeat Two times
D|--4--4---6-6--5-5--3-3--2-0--2-2-0-2--7-----------|
A|--2--2---4-4--5-5--3-3--2-0--2-2-0-2--9-----------|
E|--------------7-7--5-5--4-0--4-4-0----------------|
Dive Dive Dive Down in me
Then...
E|--------------------------------------------------|
B|--------------------------------------------------|
G|--4--4--------------------------------------------|
D|--4--4---6-6--3-3--5-5--4-0--4-4-0-2-2-2-2--------|
A|--2--2---4-4--3-3--5-5--4-0--4-4-0-2-2-2-2--------|
E|--------------5-5--3-3--2-0--2-2-0----------------|
Solo
E|------------------------------------|
B|------------------------------------|
G|------------------3-1-3-1-3-1-------|
D|-------------------------------2----|
A|--3-1-3-1-3-1-3---------------------|
E|---------------2--------------------|

It is better to burn out than to Fade Away




Ваше мнение



Капча