#---------------------------------PLEASE NOTE----------------------------------#
#This file is the author's own work and represents their interpretation of the #
#song. You may only use this file for private study, scholarship, or research. #
#------------------------------------------------------------------------------#
#------------Created with Taborama Tab Creator-----------------#
#------------------------------------------------------------------------------#
Title: D7
Artist: Nirvana
Album: ?
Instrument: 4 String Bass
Tabbed by: Nick Johnson ([email protected])
Tuning: 1/2 Step Down (Eb Ab Db Gb)RIFF1
Gb|-------------------------||
Db|-----3---------4---------||
Ab|---3---3-----4---4-------||
Eb|-1---------2-------------||X6
RIFF2
Gb|-----3---------4---------||
Db|---3---3-----4---4-------||
Ab|-1---------2-------------||
Eb|-------------------------||X2
Gb|---------------------------------||
Db|-----3---------4-----------------||
Ab|---3---3-----4---4---------------||
Eb|-1---------2---------(1)---------||X4
Bass re-enters at 1.24
Gb|---------------------------------||
Db|---------------------------------||
Ab|---------------------------------||
Eb|-1--1-1-1--1-1---2-2--4-4--2-----||X2
Gb|---------------------------------||
Db|---------------------------------||
Ab|-1--1-1-1--1-1--2-2--4-4--2------||
Eb|---------------------------------||X2
Gb|---------------------------------||
Db|---------------------------------||
Ab|---------------------------------||
Eb|-1--1-1-1--1-1--2-2--4-4-2-------||X23 (until end)
Well thats my version of the song, the tuning might be the normal E,A,D,G
but i can't remember. Mail me if you have any questions.
===========nirvana
d7
this is my frist time dong this
into
-7--5---7h5---1-1-1-1-1-1-1-1--------------------
-------------------------------9/10---------------
----------------------------------------------
----------------------------------------------
1st note repeat all of the song
-1-1-1-1-----------------------------------------
---------5-5-5-5-5-5-------------------------------
------------------------7-7-7-7-7-7-7---------------
-----------------------------------------3-3-3-3-3
===========
D7
by Nirvana
Intro
|------------------------------------------
|---------2--------------------------------
|------2------------3--5--3----------------
|---0--------0--1-------------------------- Verse/Chorus/everything else
|------------------------------------------
|------------------------------------------
|---------------------0-0-0-0-0-0-0-1-3----
|--0-0-0-0-0-0-0-1-3-----------------------
(A) (B)
Play Part A several times then move to Part
B for a couple of bars. ...then back to A.
Simple song...
Interpretation by Dave Miller ~ [email protected]




Ваше мнение



Капча