CURMUDGEON
from Lithium single

Tuning: Standard Ѕstep down

INTRO And VERSES
A#
-----------------I
-----------------I
---------------7-I
-----------------I
8b9--8b9---8-----I
6b7--6b7---6-0---I

PRE-CHORUS
F#5 C5
----------------I----------------I
----------------I----------------I
----------------I5-5-5-5-5-5-5---I
4-4-4-4-4-4-4-0-I5-5-5-5-5-5-5-0-I
4-4-4-4-4-4-4-0-I3-3-3-3-3-3-3-0-I
2-2-2-2-2-2-2-0-I--------------0-I

CHORUS
E5 D5
-------------------I
--------3-----3----I
--------2b3r2-2b3r2I
2---2--------------I
2---2--------------I
0---0--------------I

SOLO: IMPROVISED ANTI-SOLO :P

When I play the song, I improvise it totally but with the phaser on it sounds just like the real record.
Try to imitate the rhythm on the recording, play some barred figures
high up the neck like this:

------------I-------18--I
---13----12-I--14---18--I
---13----12-I--14---18--I
---13----12-I--14---18--I
------------I-----------I
------------I-----------I




Ваше мнение



Капча