ROBIN SLOAN TABS
Song: COME AS YOU ARE
Band: NIRVANA
Album: Nevermind (1991)
Intro/verse:
e-----------------------------------
B-----------------------------------
G-----------------------------------
D-----------------------------------
A---------0---0---------2---2---2---
E-0-0-1-2---2---2-2-1-0---0---0---0-

Chorus:
F# G#
e---------------------
B---------------------
G---------------------
D-4-4-4/6---6-6-6-6-6-
A-4-4-4/6---6-6-6-6-6-
E-2-2-2/4---4-4-4-4-4-
Bridge:
A# C#
e------------------------
B------------------------
G------------------------
D-8-8-8/11---11-11-11-11-
A-8-8-8/11---11-11-11-11-
E-6-6-6/9----9--9--9--9--
Solo:
e-------------------------------------------
B-------------------------------------------
G-6-6-6--[9-11-6-9-11-6-9-11 11/14--11-9-6]-
D-------------------------------------------
A-------------------------------------------
E-------------------------------------------
Intro x4
Verse x8
Chorus x4
Verse x4
Chorus x4
Bridge x4
Solo x4 (section in brackets and after bass plays intro twice)
Chorus x4
Bridge x6
Intro x4
Lyrics:
Come as you are, as you were
As I want you to be
As a friend, as a friend
As an old enemy
Take your time, hurry up
Choice is yours don't be late
Take a rest, as a friend
As an old enemyyyy yeah
Memoria
Memoria
Memoria
Come dowsed in mud, soaked in bleach
As I want you to be
As a trend, as a friend
As an old enemyyyy yeah
Memoria
Memoria
Memoria
Well I swear that I don't have a gun
No I don't have a gun
No I don't have a gun
ria
Memoria
Memoria
Memoria
Well I swear that I don't have a gun
No I don't have a gun
No I don't have a gun
No I don't have a gun
No I don't have a gun
Memoria
Memoria




Ваше мнение



Капча