Nirvana
Born In A Junkyard
Tabber: Reuel Willys ([email protected])

Intro/Verse:
e|-------------|
b|-------------|
g|-----------9-|
d|-2-2-2-2/--9-|
a|-2-2-2-2/--7-|
e|-0-0-0-0-----|

Chorus:
e|-----------------|
b|-----------------|
g|-----------------|
d|-5-5-5-4---4-4-4-|
a|-5-5-5-4---4-4-4-|
e|-3-3-3-2---2-2-2-|

Repeat Intro
Repeat Verse
Repeat Chorus
Repeat Intro

Solo: 3x
e|---------|----------------| |---------------------------------|
b|---------|----------------| |-----------------------12~~-11~~-|
g|---------|----------------| |----------------6--8-9-----------|
d|----5----|-5-7-7b-7(b*)-7-|2x |-5--7-8b---7-8-------------------|
a|-/7----7-|----------------| |---------------------------------|
e|---------|----------------| |---------------------------------|
*hit the note during the bend

e|------10br----------------------------------------------|
b|-9-11-----0--9-11--12p11h12-8h9p8h9---------------------|
g|--------------------------------------------------------|
d|--------------------------------------20-0-17-----------|
a|------------------------------------------------8~~-7~~-|
e|--------------------------------------------------------|

e|------------------------------------------------|
b|------------------------------------------------|
g|------------------------------6-8-8--8b-8-6-8~~-|
d|------------------------------------------------|
a|-----------------2-4-5b--5-7--------------------|
e|--2p1h2-1--4p3h4--------------------------------|

Repeat Chorus
Repeat Intro




Ваше мнение



Капча