From: [email protected]
N I R V A N A ------ B L E W (from the album ''bleach'')
-----------------------------------------------------------
Transcribed by D. Cohen ([email protected])
++++++++++++++++++++++++++++++++++++++++++++++++++++++
Okay, this is my second transcription, so dont be mad, i havent
got any comments on my first one (Nirvana-Dive), so tough yours:)
I can transcribe so many Nirvana songs, but i dunno what, so,
if you have any special request, it'll be my pleasure :))

''Dropped D'' tuning
---------------------
Intro / Verse / Outro
1|----------------------------------|
2|----------------------------------|
3|----------------------------------|
4|----------------------------------|
5|-0--3--5--6--6--5--3--0--5--------|
6|-0--3--5--6--6--5--3--0--5--------|
) 1/2
Verse Riff /
1|----------------------------------|----------------6----|
2|----6--8--9--9--9--8--6--8--8--6--|--8p--6h--8--8-------|
3|-7--------------------------------|---------------------|
4|----------------------------------|---------------------|
5|----------------------------------|---------------------|
6|----------------------------------|---------------------|
Oh if you...
Chorus
1|---------------------------------------------------------|
2|---------------------------------------------------------|
3|---------------------------------------------------------|
4|---------------------------------------------------------|
5|-3--5-|--5--5--3-|--3--3--5-|--5--5--3--6-|-/7-...-------|
6|-3--5-|--5--5--3-|--3--3--5-|--5--5--3--6-|-/7-...-------|
Is There another... ...Shame!!!

Date: Wed, 29 Nov 1995 17:41:14 -0600 (CST)
From: Leo Cailleteau
Subject: Nirvana Blew.Tab
I Would Like To Submit My Ideas About Blew By Nirvana.
Intro
-------------------
-------------------
-------------------
-------------------
-------------------
-0-3-5-6-6-5-------
Verse
------------------------------------------
------------------------------------------
-------------------------0-0-3-5-6-6-5----
-0-3-5-6-6-5-3-3-0-5-5-3------------------
------------------------------------------
------------------------------------------
I Would Appreciate Any Changes Or Suggestions That Anyone Could Offer.
Leo Cailleteau At [email protected]
Best
Leo




Ваше мнение



Капча