'Dropped D' tuning
---------------------

Intro / Verse / Outro
1-----------------------|
2-----------------------|
3-----------------------|
4-----------------------|
5|-0--3--5--6--6--5--3--0--5--------|
6|-0--3--5--6--6--5--3--0--5--------|
) 1/2
Verse Riff /
1----------------------------6----|
2|----6--8--9--9--9--8--6--8--8--6--|--8p--6h--8--8-------|
3|-7------------------------------------------|
4---------------------------------|
5---------------------------------|
6---------------------------------|
Oh if you...

Chorus
1----------------------------------------------|
2----------------------------------------------|
3----------------------------------------------|
4----------------------------------------------|
5|-3--5-|--5--5--3-|--3--3--5-|--5--5--3--6-|-/7-...-------|
6|-3--5-|--5--5--3-|--3--3--5-|--5--5--3--6-|-/7-...-------|
Is There another... ...Shame!!!




Ваше мнение



Капча