Nirvana - Big Cheese.
Transcribed by: Szymon Andersen

Intro and main riff (Chords; C, H)
e-------------------]
h-------------------]
g-------------------]
D---10------9-------]
A---10------9-------]
E---8-------7-------]

Black is black.. (Chords; F#, G)
e----------------]
h----------------]
g----------------]
D---4-------5----]
A---4-------5----]
E---2-------3----]

Solo part one (a little slower):
e-----------------------------------------------]
h-----------------------------------------------]
g-----------------------------------------------]
D-----------------------------------------------]
A-----------------------------------------------]
E---7---7---8---8----8----7b--7----7---7--------]

Solo part two (a little faster):
e-----------------------------------------------]
h-----------------------------------------------]
g-----------------------------------------------]
D-----------------------------------------------]
A-----------------------------------------------]
E---7--7--7---8--8--8--8--8---7>5--7--5---------]
Solo ending part:
e-------------------------------------------------------------------]
h-------------------------------------------------------------------]
g-------------------------------------------------------------------]
D-------------------------------------------------------------------]
A-------------------------------------------------------------------]
E---7--7--7--7---8--8--8--8----8>7--8>7--8>7--8>7-------------------]
If you think the solo part is totally wrong, than i can tell you, it's not.
But it isn't completely accurate too, but it's based around this, so listen
to the song and you'll figure it out! =)
If you find an error in the tab, please fix it and mail the correct txt file to me!
[email protected]




Ваше мнение



Капча