Guitarist:Kurt Cobain
Band:Nirvana
Album:Incesticide
Song:Beeswax
Tuning:Standard
(E-A-D-G-B-e)
b=bend
/=slide
Intro
e----------------------------------------------------------------------------
B----------------------------------------------------------------------------
G-----------------------------10-6------------------------------------------
D-----------------------------10-6------------------------------------------
A-98--8--8--7--7--76--65------------98--8--8--7--7--76--65---1b--------
E-76--6--6--5--5--54--43------------76--6--6--5--5--54--43-------------
e---------------------------------------------------------------------------
B-----------------------------*------------------------------------*--------
G---------------------------------*-----------------------------------------
D---------------------------------------------------------------------------
A-98--8--8--7--7--76--65-----------98--8--8--7--7--76--65-------------
E-76--6--6--5--5--54--43-----------76--6--6--5--5--54--43-------------
Verse
e---------------------------------------------------------------------------
B---------------------------------------------------------------------------
G------------------------------/10---------------------------------/8/9-----
D------------------------------/10---------------------------------/8/9-----
A-98--8--8--7--7--76--65-----------98--8--8--7--7--76--65-------------
E-76--6--6--5--5--54--43-----------76--6--6--5--5--54--43-------------
e---------------------------------------------------------------------------
B---------------------------------------------------------------------------
G------------------------------/7--------------------------------7--7--7----
D------------------------------/7--------------------------5--5--7--7--7--0-
A-98--8--8--7--7--76--65----------98--8--8--7--7--7----5--5--5--5--5--0-
E-76--6--6--5--5--54--43----------76--6--6--5--5--5/0--3--3-------------
Chorus
e---------------------------------------------------------------------------
B---------------------------------------------------------------------------
G---------------------------------------------------------------------------
D-2----------------------------------2--------------------------------------
A-2------/7-----------------4--------2------/7-----------5------------------
E-0--3/------0--(0)--6---5-----3--0--0--3/------0--6--5-----3--0------------
e-------------------------------------------------------0-------------------
B-------------------------------------------------------0-------------------
G-------------------------------------------------------0-------------------
D-2--------------------------2--------------------------2-------------------
A-2-----/7-------------------2-----/7-------------------2-------------------
E-0--3------0--6--5--4--3/0--0--3------0---0---6--5--4--0-------------------
Bridge
e----------------------------------------------------------------------------
b----------------------------------------------------------------------------
g----------------------------------------------------------2--2--2--2b-2b----
d--3--3--3--3--x--2--2--2--2b--2b--2--2--3--3--3--3--2--2--------------------
a--3--3--3--3--x-------------------------3--3--3--3--------------------------
E--1--1--1--1----------------------------1--1--1--1--------------------------
e----------------------------------------------------------------------------
B----------------------------------------------------------------------------
G----------------------------------------------------------------------------
D--31-----------------------------------------------------------------------
A-------1--------------------------------------------------------------------
E----------3--2--------------------------------------------------------------
e----------------------------------------------------------------------------
B----------------------------------------------------------------------------
G-----------------2--2b--2b--2----------------------------7--7--0------------
D--3--3--3--3--x---------------3--3--3--3--2--------5--5--7--7--0------------
A--3--3--3--3--x---------------3--3--3--3-----x--2--5--5--5--5--0------------
E--1--1--1--1--x---------------1--1--1--1-----------3--3--------0------------
Have fun and rock on.
Nirvana rules.




Ваше мнение



Капча