Nirvana
You know your right\auto pilot

Although this song is belived to be called "on them mountain" listen carefully and kurt calls it "autopilot" also at the chorus, kurt screams "Pain" not "hey"

Intro\Quiet verse
F#5
e||-----------------------||
B||-----------------------||
G||-----------------------||
D||-----------------------||
A||---4-------4-----------||
E||-0---0-2-2-------------||
Thats not exact, just play variations on that.

End of verse
D E
e||-----------------------||
B||---------7-----------9-||
G||-----7-7---------9-9---||
D||-7-7-7-7---9-9---9-9---||
A||-5--5--5---7---7---7---||
E||-----------------------||
This isnt exact either, you just have to pick the notes of the chord, getting higher and higher.
Loud verse
F#5
e||-------------------------||
B||-------------------------||
G||-------------------------||
D||-4-4-4-4-4-4-4-4-4-4-4-4-||
A||-4-4-4-4-4-4-4-4-4-4-4-4-||
E||-0-2-2-2-2-0-2-2-2-2-2-2-||
Again this isnt the exact number of times you play the chords.

Chorus
e||----------------------------------------------||
B||----------------------------------------------||
G||----------------------------------------------||
D||-4-4-4-4-4-4-4-4-4-4-4-4-4-4-4-4-4-4-4--------||
A||-4-4-4-4-4-4-4-4-4-4-4-4-4-4-4-4-4-4-4-etc...-||
E||-0-2-2-2-2-2-0-2-2-2-2-2-0-2-2-2-2-0-2--------||
"Paaaaaaaaay-aaaaaaaaay-aaaaaaaay-ain"




Ваше мнение



Капча