Intro
e|------------------------------------------|
B|------------------------------------------|
G|--------5--4------------------------------|
D|---4----5--4----7-------------------------| Repeat 2 times
A|---4----3--2----7-------------------------|
E|---2------------5-------------------------|
now this part is like a few notes palm muted on the fret board i think its this:
e|---1----5--7---9--10----------------------|
B|---1----5--7---9--10----------------------|
G|---1----5--7---9--10----------------------|
D|---1----5--7---9--10----------------------|
A|---1----5--7---9--10----------------------|
E|---1----5--7---9--10----------------------|
e|------------------------------------------|
B|------------------------------------------|
G|--------5--4------------------------------|
D|---4----5--4----7-------------------------| Repeat 8 times
A|---4----3--2----7-------------------------|
E|---2------------5-------------------------|
verse:
e|------------------------------------------|
B|------------------------------------------|
G|--4--------------------------7------------|Repeat 4 times
D|--4--------------------------7------------|
A|--2--------------------------5------------|
E|------------------------------------------|
riff:
e|------------------------------------------|
B|------------------------------------------|
G|----------------3-4--3--------------------| D|-3----4---7-----3-4--3----7---------------|
A|-3----4---7-----1-2--1----7---------------|
E|-1----2---5---------------5---------------|
verse:
e|------------------------------------------|
B|------------------------------------------|
G|--4--------------------------7------------|Repeat 4 times
D|--4--------------------------7------------|
A|--2--------------------------5------------|
E|------------------------------------------|
back to the second bit of tab
play till end
e|------------------------------------------|
B|------------------------------------------|
G|--------5--4------------------------------|
D|---4----5--4----7-------------------------|
A|---4----3--2----7-------------------------|
E|---2------------5-------------------------|
tabbed by sam yates




Ваше мнение



Капча