Transcribed By Vince Chihak
[email protected]
Aero Zepplin by NIRVANA
Rythm fig. 1
G:-------------------------------------|
D:-------------------------------------|
A:-------------------------------------|
E:0-0------0-0------0-0------0-0-------|
8 times
Rythm fig. 2
G:-------------------------------------------------|
D:------------0-0-0-0-2----------------------------|
A:2-2-2-2-2-2-----------4-----3-----2-----1--------|
E:------------------------4-4---3-3---2-2---1-1----|
4 times
Rythm fig. 3
G:------------------------------|
D:------------------------------|
A:4-----3-----2-----1-----------|
E:--4-4---3-3---2-2-------------|
3 times
Rythm fig. 4
G:-------------------------------------------------|
D:-------------------------------------------------|
A:-------------------------------------------------|
E:0-0---5-5-4-0-5-4---0-0---5-5-4-0-5-4------------|
2 times
Rythm fig. 5
G:-------------------------------------------------|
D:-------------------------------------------------|
A:-------------------------------------------------|
E:0---6---0---3---0---6---0---3--------------------|
2 times
2nd time 3 times
repeat Rythm figs. 2-5
then guitar solo below
G:----3---3-----------------------------------------|
D:2-2---2-------------------------------------------|
A:--------------------------------------------------|
E:----------001223----------------------------------|
18 times
then Rythm figs. 2 and 3, then rythm fig. 1 1 time




Ваше мнение



Капча