2 versions
~From: [email protected] (Ritchie Eppink)
Nirvana -- "Aero Zeppelin"
Alright, I can't find any thing at the moment w/AZ on it, so I'll only
be able to provide the seperate parts, and you'll have to piece it to-
gether. (Plus, sometimes it goes on for a while.) If I leave a part
out, tell me, because I've figured them all out...
It's probably tuned a half-step down, if you're planning on comparing it
to a recording.
Starts out like:
G-------9-9-7----7---|-------9-9-7----7-9-|
D--2-2---------8---8-|--2-2---------8-----| Let the E power-crd ring.
A--2-2---------------|--2-2---------------| Play this for the whole
E--0-0---------------|--0-0---------------| 1st verse.
I think the heavy(er) part starts like this:
D--2-2------------------|-2-2-------------------|
A--2-2------------------|-2-2-------------------| This gets played several
E--0-0--(4)/6-6-7-10-10-|-0-0--(4)/7-7-6-3-6-3--| times and places.
a variation of this (played near the end I think):
D--2-2-------------|-2-2-------------|
A--2-2--1-1-2-5-5--|-2-2--2-2-1---1--|
E--0-0-------------|-0-0--------3--3-|
The guitar-bridge thing:
B--5--5-5--5-5-5--5--8-8--8-8-8-|---------------------------| This gets re-
G--4--4-4--4-4-4--4--7-7--7-7-7-|---------------------------| peated several
D--2--2-2--2-2-2--2--5-5--5-5-5-|---------------------------| times, and the
A--2--2-2--2-2-2--2--5-5--5-5-5-|--5------4------3------2---| last measure is
E--0--0-0--0-0-0--0-------------|----5--5---4--4---3--3---2-| done about four
times over and
over in a few
spots.
Yeah, I probably missed something...

From: [email protected]
Aero Zeppelin
Nirvana
Incesticide
(Tune 1/2 step down (low to high: Eb,Ab,Db,Gb,Bb,Eb)
INTRO (RIFF 1) (RIFF 1A)
------0-0----------------0-0-------0----|---------------------------------
----------3----3-------------3---3------|-------------------3-3-----------
-------------3---3-------------3--------|-----------------------3---------
----------------------------------------|---------------------------------
----------------------------------------|---------------------------------
-0-0----------------0-0-----------------|--------------0-0----------------
PRE-CHORUS (RIFF 2)
-------------------------------
-------------------------------
-------------------------------
-------------------------------
-----2-2-2/5-5-----2-2-1---1---
-0-0-----------0-0-------3---3-
CHORUS (RIFF 3)
--------------------------------------------
--------------------------------------------
--------------------------------------------
------------0-0-0-2-2-----------------------
-2-2-2-2-2-2---------0-4-0-0-3--0-2--0-1-3--
------------------------------4----3--------
MAIN (RIFF 4)
---------------------
---------------------
---------------------
---------------------
---------------------
-0-0-5-5-4-4-0-5-4---
MAIN (RIFF 5)
-----------------------
-----------------------
-----------------------
-----------------------
--------5--5-----------
-0-0-0--3--3-----------

Any comments, send to me at
[email protected]
Thanks
Chris Murray




Ваше мнение



Капча