(Tune 1/2 step down (low to high: Eb,Ab,Db,Gb,Bb,Eb)
INTRO (RIFF 1) (RIFF 1A)
------0-0----------------0-0-------0----|-------------------
----------3----3-------------3---3------|---------------3-3-
-------------3---3-------------3--------|-----------------3-
----------------------------------------|-------------------
----------------------------------------|-------------------
-0-0----------------0-0-----------------|--------------0-0--
PRE-CHORUS (RIFF 2)
-------------------------------
-------------------------------
-------------------------------
-------------------------------
-----2-2-2/5-5-----2-2-1---1---
-0-0-----------0-0-------3---3-
CHORUS (RIFF 3)
--------------------------------------------
--------------------------------------------
--------------------------------------------
------------0-0-0-2-2-----------------------
-2-2-2-2-2-2---------0-4-0-0-3--0-2--0-1-3--
------------------------------4----3--------
MAIN (RIFF 4)
---------------------
---------------------
---------------------
---------------------
---------------------
-0-0-5-5-4-4-0-5-4---
MAIN (RIFF 5)
-----------------------
-----------------------
-----------------------
-----------------------
--------5--5-----------
-0-0-0--3--3-----------




Ваше мнение



Капча