Intro:
Em G Em G Em G Em G Em G Em G
Em G Em G
I need an easy friend
Em G Em G
I do with a ear to lend
Em G Em G
I do think you fit this shoe
Em G Em G
I do what you have a clue
(#1)
I'll take advantage while
(#1)
You hang me out to dry
(#1)
e|--------------------------|
B|--------------------------|
G|--6--6--------------------|
D|--6--6--6---4-4--4--4-4---|
A|--4--4--6---4-4--4--4-4---|
E|--------4---2-2--2--2-2---|
Em A C Em G Em G
But I can't see you every night free
Em G Em G Em G
I do
(play same as last verse)
I'm standing in your light
I do hope you have the time
I do pick up number two
I do keep a date with you
(#1)
I'll take advantage while
(#1)
You hang me out to dry
Em A C Em G Em G
But I can't see you every night free
Em G Em G Em G
(SOLO)
e|------------------------------------|
B|------------------------------------|
G|---------5-7/-----9-9-9-9/--12-12-12|X4
D|-2-/-5-7-----------------/--12-12-12|
A|-2----------------------------------|
E|-0----------------------------------|
(Straight after solo)
e|--------------------------|
B|--------------------------|
G|--6--6--------------------|x2
D|--6--6--6---4-4--4--4-4---|
A|--4--4--6---4-4--4--4-4---|
E|--------4---2-2--2--2-2---|
Em A C
Em G Em G Em G Em G Em G Em G Em G Em G Em G
Em G Em G
I need an easy friend
Em G Em G
I do with a ear to lend
Em G Em G
I do think you fit this shoe
Em G Em G
I do what you have a clue
(#1)
I'll take advantage while
(#1)
You hang me out to dry
Em A C Em A C Em G Em G Em G
But I can't see you every night But I can't see you every night...free
Em G Em G Em G Em G Em G Em G
I do...... I do........ I do........ I do




Ваше мнение



Капча