t. See http://www.olga.net/faq/ for more information. #
From: "BART"
Subject: n/nine_inch_nail/were_in_this_together.tab
Date: Thu, 20 Jan 2000 15:11:19 -0500
Artist: Nine Inch Nails
Song: We're In This Together
Album: The Fragile
Tabbed by: BART (a.k.a. Farmboy)
Dropped-D tuning
Intro
(w/ pulsating echo regeneration)
Gtr 1 (w/ heavy dist.)
|--------------------|
|--------------------|
|--------------------|
|--0-----------------|
|--0-----------------|
|--0-----------------|
(fade in)
(w/ echo regen. & other sound effects)
||------------------------------------||
||--------------------play 8 times----||
||------------------------------------||
||------------------------------------||
||------------------------------------||
||--1--0---0--(0)----0----0-----------||
Riff A
play 4 times
||--------------------------------||
||--------------------------------||
||--------------------------------||
||--------------------------------||
||--------------------------------||
||--1--0---0--(0)---0-------------||
Gtr 1 plays Riff A 12 times
Gtr 2 (w/heavy dist. & wah effect)
1/2
||----------------------------------------------------|
||----------------------------------------------------|
||----------------------------------------------------|
||--/17-17-17-17-17-17-17-17-17-17-17-17^-17-17-17-17-|
||----------------------------------------------------|
||--/17-17-17-17-17-17-17-17-17-17-17-17^-17-17-17-17-|
1/2
|----------------------------------------------------|
|----------------------------------------------------|
|----------------------------------------------------|
|--/16-16-16-16-16-16-16-16-16-16-16-16^-16-16-16-16-|
|----------------------------------------------------|
|--/16-16-16-16-16-16-16-16-16-16-16-16^-16-16-16-16-|
1/2
|---------------------------------------------------|
|---------------------------------------------------|
|---------------------------------------------------|
|--15-15-15-15-15-15-15-15-15-15-15-15^-15-15-15-15-|
|---------------------------------------------------|
|--15-15-15-15-15-15-15-15-15-15-15-15^-15-15-15-15-|
1/2
|---------------------------------------------------|
|---------------------------------------------------|
|---------------------------------------------------|
|--10-10-10-10-10-10-10-10-10-10-10-10^-10-10-10-10-|
|---------------------------------------------------|
|--10-10-10-10-10-10-10-10-10-10-10-10^-10-10-10-10-|
Gtrs 1 & 2
(wah effect off)
||-------------------------------||
||---------------play 6 times----||
||-------------------------------||
||-------------------------------||
||-------------------------------||
||--1-0--0-(0)---0--(0)----------||
N.H.
||-------------------------------||
||-------------------------------||
||-------------------------------||
||-------------------------------||
||-------------------------------||
||--1-0--0-(0)---5--(5)----------||
1st Verse
Gtr 1
||--------------------------------||
||----------------play 16 times---||
||--------------------------------||
||--------------------------------||
||--------------------------------||
||--1--0---0--(0)---0-------------||

Chorus (Rhy. fig. 1)
Gtr 2
--------------------------
--------------------------
--------------------------
--19--20--22--17--21--22--
--------------------------
--19--20--22--17--21--22--
Gtr 1
--------------------------
--------------------------
--------------------------
--12--13--15--10--3---10--
--------------------------
--12--13--15--10--3---10--
Strumming: Gtrs 1 & 2 in unison. Strum first chord 24 times; second=20
chord 8 times; third chord 32 times; fourth 32 times; fifth 24 times;=20
sixth 8 times.=20
let ring a while before hitting second note.
--------------|-----
--------------|-----
--------------|-----
--------------|-----
--------------|-----
-0------------|-0---
2nd Verse
play Riff A 5 times
Gtr 1 plays riff A 8 times
Gtr 2=20
(Riff B) 1/2 (end riff B)
------------------------------------------|play 4 times
------------------------------------------|
---10----10-------------------------------|
---10----10-10---10---10---10---10^-(10)--|
----0-----0-------------------------------|
----0-----0-10---10---10---10---10^-(10)--|
1/2 =20
|----------------------------------------------|play 4 times
|----------------------------------------------|
|----------------------------------------------|
|------------------10---10---10---10^-(10)-----|
|----------------------------------------------|
|--1--0---0--(0)---10---10---10---10^-(10)-----|
Breakdown
(Drums only for 3 measures)
play Riff B 5 times
play Riff A 4 times starting at 2nd repeat of riff B.

Guitar Solo
Gtrs 1 & 2 play Rhy. fig. 1 twice.
Gtr 3 (w/ dist.)
(gtr tone radically altered via signal processing)
||-------------------------------------------------|
||-------------------------------------------------|
||-------------------------------------------------|
||-12-12-12-12-12-12-12-12-12-12-12-12-12-12-12-12-|
||-------------------------------------------------|
||-12-12-12-12-12-12-12-12-12-12-12-12-12-12-12-12-|
full 1/2 full =20
|-----------------------------------------|
|-----------------------------------------|
|-----------------------------------------|
|-12-12^---(12)--12^--(12)--12\--0---3^---|
|-----------------------------------------|
|-12-12^---(12)--12^--(12)--12\--0---3^---|
|----------------------------------------------|
|----------------------------------------------|
|----------------------------------------------|
|--(3)---3---0---10-10-10-10-10-10-10-10-10-10-|
|------------0---------------------------------|
|--(3)---3---0---10-10-10-10-10-10-10-10-10-10-|
|------------------------------------------------|
|------------------------------------------------|
|------------------------------------------------|
|-5--5--5--5--9--9--9--9-17-17-17-17-17-17-17-17-|
|------------------------------------------------|
|-5--5--5--5--9--9--9--9-17-17-17-17-17-17-17-17-|
1/4 (hold and bend up to 1/2 with next 2 chords and hold for 2 =
more chords.)
|------------------------------------------------|
|------------------------------------------------|
|------------------------------------------------|
|-17-17-17^-17.17-17---8--8--8--8--8--8--8--8--8-|
|------------------------------------------------|
|-17-17-17^-17.17-17-0-8--8--8--8--8--8--8--8--8-|
(. seperates 2 notes played fast to eliminate any confusion)
|--------------------------------------------------|
|--------------------------------------------------|
|--------------------------------------------------|
|--10-10-10-10-10-10-10-10-10-10-10-10-17-17-17-17-|
|--------------------------------------------------|
|--10-10-10-10-10-10-10-10-10-10-10-10-17-17-17-17-|
1/2 (hold and bend up to full with next 2 chords and hold for 2 =
more chords.)
|--------------------------------------------------|
|--------------------------------------------------|
|--------------------------------------------------|
|-17-17-17-17^-17.17-10-10-10-10-10-10-10-10-10-10-|
|--------------------------------------------------|
|-17-17-17-17^-17.17-10-10-10-10-10-10-10-10-10-10-|
|--------------------------------------------------|
|--------------------------------------------------|
|--------------------------------------------------|
|--10-10-10-10-10-10-10-10-10-10-10-10-10-10-10-10-|
|--------------------------------------------------|
|--10-10-10-10-10-10-10-10-10-10-10-10-10-10-10-10-|
play 3 times
|-----------------------------------------------------------------|
|-----12--12--12--12--12--x--12--12--12--12--10--10--10--10-------|
|-----12--12--12--12--12--x--12--12--12--12--10--10--10--10-------|
|-----12--12--12--12--12--x--12--12--12--12--10--10--10--10-------|
|------------------------------------------------------------12---|
|-----------------------------------------------------------------|
|-------------------------------------------|
|--12-12-12-12-x-x-12-12-12-10-10-x-x-x-x-x-|
|--12-12-12-12-x-x-12-12-12-10-10-x-x-x-x-x-|
|--12-12-12-12-x-x-12-12-12-10-10-x-x-x-x-x-|
|-------------------------------------------|
|-------------------------------------------|
=20
play twice
|----------------------------------------------|
|-12-12-12-12-12-x-12-12-12-12-10-10-10-10-12--|
|-12-12-12-12-12-x-12-12-12-12-10-10-10-10-12--|
|-12-12-12-12-12-x-12-12-12-12-10-10-10-10-12--|
|----------------------------------------------|
|----------------------------------------------|
play next two measures a bit faster than the last few.
|----------------------------------------------|
|-12-12-12-12-12-x-12-12-12-12-10-10-10-10-----|
|-12-12-12-12-12-x-12-12-12-12-10-10-10-10-----|
|-12-12-12-12-12-x-12-12-12-12-10-10-10-10-12--|
|----------------------------------------------|
|----------------------------------------------|
|----------------------------------------------|
|-12-12-12-12-x-x-12-12-12-10-10-x-x-x-x-x-----|
|-12-12-12-12-x-x-12-12-12-10-10-x-x-x-x-x-----|
|-12-12-12-12-x-x-12-12-12-10-10-x-x-x-x-x-----|
|----------------------------------------------|
|----------------------------------------------|
3rd Chorus
Gtrs 1 & 2 play Rhy. fig. 1 twice
Gtr 3
|---------------------------------------------|
|---------------------------------------------|
|---------------------------------------------|
|--14-14-14-14-14-14-14-14-14-14-14-14-14-14\-|
|---------------------------------------------|
|--14-14-14-14-14-14-14-14-14-14-14-14-14-14\-|
Gtr 4
|---------------------------------------------|
|---------------------------------------------|
|---------------------------------------------|
|--19-19-19-19-19-19-19-19-19-19-19-19-19-19\-|
|---------------------------------------------|
|--19-19-19-19-19-19-19-19-19-19-19-19-19-19\-|
Gtr 3
|---------------------------------------------------|
|---------------------------------------------------|
|---------------------------------------------------|
|--7--7--7--7--7--7--7--7--7--7--7--7--7--7--7--7-/-|
|---------------------------------------------------|
|--7--7--7--7--7--7--7--7--7--7--7--7--7--7--7--7-/-|
Gtr 4
|---------------------------------------------------|
|---------------------------------------------------|
|---------------------------------------------------|
|-12-12-12-12-12-12-12-12-13-13-13-13-13-13-13-13-/-|
|---------------------------------------------------|
|-12-12-12-12-12-12-12-12-13-13-13-13-13-13-13-13-/-|
Gtr 3=20
|---------------------------------------------------|
|---------------------------------------------------|
|---------------------------------------------------|
|-15-15-15-15-15-15-15-15-15-15-15-15-15-15-15-15-\-|
|---------------------------------------------------|
|-15-15-15-15-15-15-15-15-15-15-15-15-15-15-15-15-\-|
Gtr 4
|---------------------------------------------------|
|---------------------------------------------------|
|---------------------------------------------------|
|-19-19-19-19-19-19-19-19-19-19-19-19-19-19-19-19-\-|
|---------------------------------------------------|
|-19-19-19-19-19-19-19-19-19-19-19-19-19-19-19-19-\-|
Gtr 3
|---------------------------------------------------|
|---------------------------------------------------|
|---------------------------------------------------|
|--7--7--7--7--7--7--7--7--7--7--7--7--7--7--7--7-/-|
|---------------------------------------------------|
|--7--7--7--7--7--7--7--7--7--7--7--7--7--7--7--7-/-|
Gtr 4
Repeat last measure.
Gtr 3
|--------------------------------------------------|
|--------------------------------------------------|
|--------------------------------------------------|
|--14-14-14-14-14-14-14-14-14-14-14-14-14-14-14-14-|
|--------------------------------------------------|
|--14-14-14-14-14-14-14-14-14-14-14-14-14-14-14-14-|
Gtr 4
|--------------------------------------------------|
|--------------------------------------------------|
|--------------------------------------------------|
|--------------------------------------------------|
|--------------------------------------------------|
|--17-17-17-17-17-17-17-17-17-17-17-17-17-17-17-17-|
Gtr 3
|--------------------------------------------------|
|--------------------------------------------------|
|--------------------------------------------------|
|--5--5--5--5--5--5--5--5--5--5--5--5--5--5--5--5--|
|--------------------------------------------------|
|--5--5--5--5--5--5--5--5--5--5--5--5--5--5--5--5--|
Gtr 4=20
Repeat last measure
Gtr 3
|--------------------------------------------------|
|--------------------------------------------------|
|--------------------------------------------------|
|--14-14-14-14-14-14-14-14-14-14-14-14-14-14-14-14-|
|--------------------------------------------------|
|--14-14-14-14-14-14-14-14-14-14-14-14-14-14-14-14-|
Gtr4
Repeat last measure
Gtr 3
|--------------------------------------------------|
|--------------------------------------------------|
|--------------------------------------------------|
|-12-12-12-12-12-12-12-12-10-10-10-10-10-10-10-10--|
|--------------------------------------------------|
|-12-12-12-12-12-12-12-12-10-10-10-10-10-10-10-10--|
Gtr 4
|--------------------------------------------------|
|--------------------------------------------------|
|--------------------------------------------------|
|-15-15-15-15-15-15-15-15-14-14-14-14-14-14-14-14--|
|--------------------------------------------------|
|-15-15-15-15-15-15-15-15-14-14-14-14-14-14-14-14--|

Outro Piano Solo
Gtr 3
|---------------------------------------------------|
|---------------------------------------------------|
|---------------------------------------------------|
|--14-14-14-14-14-14-14-14-14-14-14-14-14-14-14-14\-|
|---------------------------------------------------|
|--14-14-14-14-14-14-14-14-14-14-14-14-14-14-14-14\-|
Gtr 4
|---------------------------------------------------|
|---------------------------------------------------|
|---------------------------------------------------|
|--19-19-19-19-19-19-19-19-19-19-19-19-19-19-19-19\-|
|---------------------------------------------------|
|--19-19-19-19-19-19-19-19-19-19-19-19-19-19-19-19\-|
Gtr 3
|---------------------------------------------------|
|---------------------------------------------------|
|---------------------------------------------------|
|--7--7--7--7--7--7--7--7--7--7--7--7--7--7--7--7-/-|
|---------------------------------------------------|
|--7--7--7--7--7--7--7--7--7--7--7--7--7--7--7--7-/-|
Gtr 4
|---------------------------------------------------|
|---------------------------------------------------|
|---------------------------------------------------|
|-12-12-12-12-12-12-12-12-13-13-13-13-13-13-13-13-/-|
|---------------------------------------------------|
|-12-12-12-12-12-12-12-12-13-13-13-13-13-13-13-13-/-|
Gtr 3=20
|--------------------------------------------------|
|--------------------------------------------------|
|--------------------------------------------------|
|-15-15-15-15-15-15-15-15-15-15-15-15-15-15-15-15\-|
|--------------------------------------------------|
|-15-15-15-15-15-15-15-15-15-15-15-15-15-15-15-15\-|
Gtr 4
|--------------------------------------------------|
|--------------------------------------------------|
|--------------------------------------------------|
|-19-19-19-19-19-19-19-19-19-19-19-19-19-19-19-19--|
|--------------------------------------------------|
|-19-19-19-19-19-19-19-19-19-19-19-19-19-19-19-19--|
Gtr 3
|---------------------------------------------------|
|---------------------------------------------------|
|---------------------------------------------------|
|--7--7--7--7--7--7--7--7--7--7--7--7--7--7--7--7-/-|
|---------------------------------------------------|
|--7--7--7--7--7--7--7--7--7--7--7--7--7--7--7--7-/-|
Gtr 4
Repeat last measure
Gtr 3
|---------------------------------------------------|
|---------------------------------------------------|
|---------------------------------------------------|
|--14-14-14-14-14-14-14-14-14-14-14-14-14-14-14-14\-|
|---------------------------------------------------|
|--14-14-14-14-14-14-14-14-14-14-14-14-14-14-14-14\-|
Gtr 4
|---------------------------------------------------|
|---------------------------------------------------|
|---------------------------------------------------|
|--17-17-17-17-17-17-17-17-17-17-17-17-17-17-17-17--|
|---------------------------------------------------|
|--17-17-17-17-17-17-17-17-17-17-17-17-17-17-17-17--|
Gtr 3
|--------------------------------------------------|
|--------------------------------------------------|
|--------------------------------------------------|
|--5--5--5--5--5--5--5--5--5--5--5--5--5--5--5--5/-|
|--------------------------------------------------|
|--5--5--5--5--5--5--5--5--5--5--5--5--5--5--5--5/-|
Gtr 4
Repeat last measure
Gtr 3 (diminish gradually as section is repeated)
|--------------------------------------------------|
|--------------------------------------------------|
|--------------------------------------------------|
|--14-14-14-14-14-14-14-14-14-14-14-14-14-14-14-14-|
|--------------------------------------------------|
|--14-14-14-14-14-14-14-14-14-14-14-14-14-14-14-14-|
Gtr 4
Repeat last measure
(segue into next section)
Gtr 3 (play 5 times) =20
|--------------------------------------------------|
|--------------------------------------------------|
|--------------------------------------------------|
|-12-12-12-12-12-12-12-12-10-10-10-10-10-10-10-10--|
|--------------------------------------------------|
|-12-12-12-12-12-12-12-12-10-10-10-10-10-10-10-10--|
Gtr 4
|--------------------------------------------------|
|--------------------------------------------------|
|--------------------------------------------------|
|-15-15-15-15-15-15-15-15-14-14-14-14-14-14-14-14--|
|--------------------------------------------------|
|-15-15-15-15-15-15-15-15-14-14-14-14-14-14-14-14--|




Ваше мнение



Капча