Nine Inch Nails
Fragile
We're In This Together
Transcribed by --====--
[email protected]
[intro, and main riff]
use delay effect with this, and use tons of low end distortion
e|------------------------------------------------------------------------------------|
B|------------------------------------------------------------------------------------|
G|------------------------------------------------------------------------------------|
D|-0-1-0-0--0-1-0-0-------------------------------------------------------------------|
A|-0-1-0-0--0-1-0-0-------------------------------------------------------------------|
D|-0-1-0-0--0-1-0-0-------------------------------------------------------------------|
repeat this about 20 times
[chorus]
use lots of low end/mid distortion on this too, but no delay effects
e|----------------------------------------------------------------------------------------------------------------------|
B|----------------------------------------------------------------------------------------------------------------------|
G|-7-7-7-7-7-7-7-8-8-8-8-8-8-8-8-8--10-10-10-10-10-10-10--5-5-5-5-5-5-5-5-5--4-4-4-4-4-4-4-4--5-5-5-5-5-5-5-5-----------|
D|-7-7-7-7-7-7-7-8-8-8-8-8-8-8-8-8--10-10-10-10-10-10-10--5-5-5-5-5-5-5-5-5--4-4-4-4-4-4-4-4--5-5-5-5-5-5-5-5-----------|
A|-5-5-5-5-5-5-5-6-6-6-6-6-6-6-6-6--8---8--8---8---8--8--8---3-3-3-3-3-3-3-3-3--2-2-2-2-2-2-2-2--3-3-3-3-3-3-3-3--------|
D|----------------------------------------------------------------------------------------------------------------------|
repeat this 2x
[second chorus,(prechorus)]
e|-------------------------------------------------------------------|
B|-------------------------------------------------------------------|
G|-5-5-5-5-5-5-5---b5------------------------------------------------|
D|-5-5-5-5-5-5-5---b5------------------------------------------------|
A|-3-3-3-3-3-3-3---b3------------------------------------------------|
D|-------------------------------------------------------------------|
[solo]
this might not be exact, but it still sound good
e|-------------------------------------------------------------------|
B|-------------------------------------------------------------------|
G|------------------------------b7-5---------------------------------|
D|-b5-b3-b5-3b---------------------5------b5----------v7-------------|
A|-------------------v5--v3--------------v5------b7-v5---------------|
D|-------------------------------------------------------------------|
[post-chorus]
e|----------------------------------------------------------------|
B|----------------------------------------------------------------|
G|--12--10--12--10--12--10-x-x-x-x-x-x----------------------------|
D|--12--10--12--10--12--10-x-x-x-x-x-x----------------------------|
A|--10---8---10---8--10--8--x-x-x-x-x-x---------------------------|
D|----------------------------------------------------------------|
ORDER
[intro, mainriff]
[chorus]
[intro, mainriff]
[chorus] (play 8x)
[solo]
[post-chorus]
[chorus]
--====--
[email protected]




Ваше мнение



Капча