Nine Inch Nails
The Frail
The Fragile
Q- quarter note
E- eight note
Q Q Q Q Q Q EEQ Q Q Q Q Q Q Q Q
[---------------------------------]
[---------------------------------]
[-----------7---------------------] Guitar --
[-5-------5---3---2-3-----5-------] -
[---3-1--------32-----3-2---3-1---] -
[-------3-----------------------3-] - together
-
Q Q Q Q Q Q Q Q Q Q Q Q Q Q Q Q -
[---------------------------------] -
[---1-3-5---1-3-5---1-3-5---1-3-5-] Bass ----
[-5-------5-------5-------5-------]
[---------------------------------]

Q Q EEQ Q Q Q Q Q Q EEQ Q Q Q Q
[---------------------------------]
[---------------------------------]
[-------------------7-------------] Guitar --
[-2-3-----3---5---5---3---2-3-----] -
[-----235---3---5------32-----1---] -
[-------------------------------3-] -
- together
Q Q Q Q Q Q Q Q Q Q Q Q Q Q Q Q -
[---------------------------------] -
[---1-3-5---1-3-5---1-3-5---1-3-5-] Bass --
[-5-------5-------5-------5-------]
[---------------------------------]
Q Q Q Q Q Q Q Q Q Q Q Q Q Q Q Q
[---------------------------------]
[---1-3-5---1-3-5---1-3-5---1-3-5-] Bass --
[-5-------5-------5-------5-------] -
[---------------------------------] -
- together
Q Q Q Q Q Q Q Q Q Q Q Q Q Q Q Q -
[---------------------------------] -
[---------------------------------] Bass --
[---------------------------------] 5 String
[---------------------------------]
[-3-4-6-8-3-4-6-8-3-4-6-8-3-4-6-8-]
This should be almost completely right.
If it doesn't sound right to you your playing it wrong.
Played it on the piano and it was right.




Ваше мнение



Капча