The Fragile - Nine Inch Nails

Verse (guitar):
B|---14~~~~~~---////----|
G|---18~~~~~~---////----|

Chorus (guitar/with distortion):
G #G #A F

Solo:

E|-3-3-3-3------------------------------------------10-10-10-10---------------------|
B|----------1-1-1-1-1---------------------3-3-3-3-----------------6-6-6-------------|
G|----------------------3-3-3--0--0-0-0------------------------------------4--4-4-4-|
D|----------------------------------------------------------------------------------|


E|-3-3-3-3--------------------------------------------------------------------------------|
B|----------1-1-1-1-----------------------------------------------------------------------|
G|---------------------3-3-3--0--0-0-0--9-9-9-9-10-10-10-10-12-12-12----------------------|
D|-------------------------------------------------------------------------------9--9-9-9-|


E|-3-3-3-3-10-10-10-10-------------------3-3-3-3-------------------------------------|
B|---------------------------6-6-6---------------------1-1-1-1-----------------------|
G|----------------------------------4--4-4-4---------------------3-3-3-3--0-0-0-0-0--|
D|-----------------------------------------------------------------------------------|

tabbed by: dex - [email protected]




Ваше мнение



Капча