From: [email protected] (Brent Allen Musat)
the becoming
nine inch nails
This is the acoustic part in the middle and end of the song. I just play
them as power chords. Keep your right hand strumming constantly throughout,
scuffing the strings in between the chord changes.
G F C Bb F C F (play twice)
G F C Bb F C F
hi-ding backwards in-side of me i feel so unafraid
G F C Bb F C F
an-nie, hold a little tighter i might just slip away
I felt sorry for the people out there who don't know much about chords so I
TABed it for you.
G F C Bb
e-------------------------|-------------------------|
B-------------------------|-------------------------|
G-------------------------|-5-5-5-5-5-x-3-3-3-3-3-x-|
D-5-5-5-5-5-x-3-3-3-3-3-x-|-5-5-5-5-5-x-3-3-3-3-3-x-|
A-5-5-5-5-5-x-3-3-3-3-3-x-|-3-3-3-3-3-x-1-1-1-1-1-x-|
E-3-3-3-3-3-x-1-1-1-1-1-x-|-------------------------|
F C F
e-------------------------|-------------------------|
B-------------------------|-------------------------|
G-------------5-5-5-5-5-x-|-------------------------|
D-3-3-3-3-3-x-5-5-5-5-5-x-|-3-x-x-3-x-x-x-x-x-x-x-x-|
A-3-3-3-3-3-x-3-3-3-3-3-x-|-3-x-x-3-x-x-x-x-x-x-x-x-|
E-1-1-1-1-1-x-------------|-1-x-x-1-x-x-x-x-x-x-x-x-|
Hope this is of interest to some of you out there.
brent..
[email protected]




Ваше мнение



Капча