Nine Inch Nails
Fragile
Somewhat Damaged
Transcribed by --====--

[main riff]

this is the main riff, and this is played throughthe whole song

e|---------------------------------------------------------------|
B|------------------------------------------0---------0----------|
G|---------------------------------------------------------------|
D|---------------------------------------------------------------|
A|---------------------------------------------------------------|
D|0-1-2-3--0-1-2-3--0-1-2-3--0-1-2-3--0-1-2-3--0-1-2-3-----------|

[chorus]

e|---------------------------------------------------------------------|
B|---------------------------------------------------------------------|
G|---------------------------------------------------------------------|
D|-0-1-2-3--0-1-2-3--0-2-2-3-------------------------------------------|
A|-0-1-2-3--0-1-2-3--0-1-2-3-------------------------------------------|
D|-0-1-2-3--0-1-2-3--0-1-2-3-------------------------------------------|

--====--
[email protected]




Ваше мнение



Капча