Nine Inch Nails - Scary Monsters (Live With David Bowie)
Tabbed By: Myke
EMail: [email protected]
Standard Tuning
Intro:
|-----------10/17----15----------------15-17--17b18r17-15--------|
|--------8--------------17-15----15-17--------------------17-15--|
|------7---------------------------------------------------------|
|----7-----------------------------------------------------------|
|--7-------------------------------------------------------------|
|----------------------------------------------------------------|
|-----------10/17----15----------------15-17--17b18r17-17p15----15--|
|--------8--------------17-15----15-17-----------------------17-----|
|------7------------------------------------------------------------|
|----7--------------------------------------------------------------|
|--7----------------------------------------------------------------|
|-------------------------------------------------------------------|
|-----15-------15----12-11-10-----------------------------|
|--17-------17----------------12-11-10--0--8-9-0----------|
|------------------------------------------------3-2-0----|
|------------------------------------------------------2--|
|---------------------------------------------------------|
|---------------------------------------------------------|
Chorus:
|--------------------------|
|--------------------------|
|--------------------------|
|--0-7h8p7-0-0----0-7h8p7--|
|--------------------------|
|--------------------------|
Solo:
|--------------13---------------------------------------------------------10-----|
|--------15----------15------15--------13--------10----11-----13-----------------|
|--13-14----14----14----x-13----14-12-----11--------11----11-----11----11----11--|
|--------------------------------------------10---------------------10-----------|
|--------------------------------------------------------------------------------|
|--------------------------------------------------------------------------------|
|----------10-------------------------12----10-------------------------|
|--12---------12------10-10-----------------------12----0-10----10-----|
|-----11---------11---------11-10--10----10----10----10------10----13--|
|--------9----------9--------------------------------------------------|
|----------------------------------------------------------------------|
|----------------------------------------------------------------------|
|-----------13----14----13-------------------------------------------------|
|--------15-------------------15--------15----13-------13----15-------13--|
|--13-14-------14----14----14----14-13-----14----12------12-----14---------|
|---------------------------------------------------10-------------12------|
|--------------------------------------------------------------------------|
|--------------------------------------------------------------------------|
|------------10----------------------------10-----------10----------10--|
|--/12-----------12--------10b11-12------------12-----------12----------|
|------11------------11-------------11------------11-----------11-------|
|------------------------9--------------9------------9------------9-----|
|-----------------------------------------------------------------------|
|-----------------------------------------------------------------------|
|----------------------0--13----------------|
|-----------------------------10------------|
|----------10-12h13p12------------13-12p10--|
|--10--12-----------------------------------|
|-------------------------------------------|
|-------------------------------------------|
|----------------------------------------------------------------|
|----------------------------------------------------------------|
|--12h13p12p10----10-12h13p12p10----10-12h13p12p10----10-12h13--|
|--------------12----------------12----------------12------------|
|----------------------------------------------------------------|
|----------------------------------------------------------------|
|----------------8------10-11--12--13--11--12-13/14--12-13-14/15--13--14--15--16--14--|
|--------7h8-x-x----------------------------------------------------------------------|
|-----7-------------------------------------------------------------------------------|
|--9----------------------------------------------------------------------------------|
|-------------------------------------------------------------------------------------|
|-------------------------------------------------------------------------------------|
|--15-16-17-16-15-13-----13---------------------------------------------------------------|
|--------------------15-----15-14-13-----------------------------10-----------------------|
|------------------------------------14-12-11-----10-11-12-13-13----13-12-10----10--------|
|---------------------------------------------12-----------------------------12-------12--|
|-----------------------------------------------------------------------------------------|
|-----------------------------------------------------------------------------------------|
|---------------------------------------------------|
|-----------10-------10-11----10-11-12-10-11-12-13--|
|--10-12-13----12-13-------13-----------------------|
|---------------------------------------------------|
|---------------------------------------------------|
|---------------------------------------------------|
|---------------------------------------15-16-17h18/22----22b24--|
|--12-13-14-12-13-14-15----15-16-17h18---------------------------|
|----------------------------------------------------------------|
|----------------------------------------------------------------|
|----------------------------------------------------------------|
|----------------------------------------------------------------|




Ваше мнение



Капча