The song is played with normal tuning and with a pick, pretty easy to figure out,
just remember to bend the last open note occasionally as listed in the bottom.

Intro
Play from 0:00-0:15

G---------------------------------------------------------------|
D---------------------------------------------------------------|
A---------------------------------------------------------------|
E--0-0---000000-000-000-0-0-------------------------------------|

Verse
Play from 0:16-1:05

G---------------------------------------------------------------|
D---------------------------------------------------------------|
A---------------------------------------------------------------|
E--0-0-0-0--4-4--1-1--3-3-3-3--4-4--1-1-------------------------|

Pre-Chorus
Play from 1:06-1:20

G---------------------------------------------------------------|
D---------------------------------------------------------------|
A--1-1-1---4-4--0-0---------------------------------------------|
E--------------------2-2-2---0-0--5-5---------------------------|

Chorus
Play from 1:21-1:36

G---------------------------------------------------------------|
D---------------------------------------------------------------|
A--1-1-1-1-1-1-1-1-1-4-4-4-4-0-0-0------------------------------|
E----------------------------------2-2-2-2-2-2-2-2-0-0-0-0-5-5-5|

How it's played:
Intro 1x
Verse 7x
Pre-Chorus 2x
Chorus 2x
Verse 9x (Key note here! on the 5th and 6th time playing it, he bends the last
open and holds it an extra count or two)
Chorus 2x
Pre-Chorus 2x (and the bass stops playing at 3:15)

Any questions, feel free to email me at [email protected]




Ваше мнение



Капча