Subject: TAB: piggy (remixed by rick rubin) - Nine Inch Nails
Date: Thu, 31 Aug 1995 15:02:49 -0400 (EDT)
From: "Michael Gartley"
nothing can stop me now - remix of piggy
----------------------------------------
tablature (attempt) by Michael Gartley
w/ Dave Navarro on guitar
Comments about transcription: This is my favorite track on the CD. I
tried to figure this one out because Dave is one of my favorite players.
He uses some pretty cool chords for this song, so they were more difficult
for me to figure out. I tried to map out the chords to the different
sections of the song that have guitar in them.
If anyone plays this any different, let me know, because my ear isn't
all that good. The verse chords are sort of hard to hear, but here goes..
1st verse chords strummed low to high:
black and blue and broken bones you left me here i'm all alone
e---0---------------0--------------------0-------------0--------------
b---0---------------0--------------------0-------------0--------------
g---8---------------9--------------------6-------------9--------------
d---9---------------9--------------------7-------------9--------------
a---9---------------7--------------------7-------------7--------------
e---7------------------------------------5----------------------------
my little piggy needed something new
e---0--------------0-----------------0-----
b---0--------------0-----------------0-----
g---8--------------9-----------------6-----
d---9--------------9-----------------7-----
a---9--------------7-----------------7-----
e---7--------------------------------5-----
chorus chords:
nothing can stop me now, cause i don't care any more
e---------------------------------------------------------------------
b---------------------------------------------------------------------
g-4--------------------------------------4----------------(5)(5)(5)---
d-4-----------7-------7----5-------------4-------7-----8--(5)(5)(5)-4-
a-2-----------5-------7----5-------------2-------5-----8--(5)(5)(5)-4-
e-------------5-------5----3---------------------5-----6--(5)(5)(5)-2-
sometimes Dave leaves the natural harmonics out
2nd verse chords:
sort of the same as the first verse, but Dave changes them a little to
add some disonance. I haven't been able to figure them out yet.
towards the end of the second verse he plays:
(the "what am i supposed to do, i lost my shit because of you" part)
e-2-2--2--2-2-2--2--2-0-0--0--0--0-0--0--0----------------------------
b-3--3--3---3--3--3---2--2--2--2h3--3--3------------------------------
g-2---------0---------0----------0------------------------------------
d-0---------0---------------------------------------------------------
a---------------------------------------------------------------------
e---------------------------------------------------------------------
then back to the chorus riff repeated.
Again, any comments or corrections are appreciated.


Ваше мнение



Капча