Artist: Nine Inch Nails
Album: Halo 5 Broken
Song: Last
tabbed by: [email protected]

distortion:
high levels of distortion and gain, lots of mid, low low, medium high levels of high

PM=palm mute

[main riff]

E----------------------------------PM-0 pm4x fast
A-6--6--6-6-6---12---12--6--6--6---PM-0
D--8--8--8-8-8----14--14--8--8--8--PM-0
G--8--8--8-8-8----14--14--8--8--8------
B--------------------------------------
E--------------------------------------

[pre chorus]

E-----------------------------------------------------------
A-5-6-7--3-4-5----------------------------------------------
D--7-8-9--5-6-7---------------------------------------------
G--7-8-9--5-6-7- play 4x------------------------------------
B-----------------------------------------------------------
E-----------------------------------------------------------

There is a solo that is played in this song, that I am working on, I will put that in later

email me if you need any help at [email protected]




Ваше мнение



Капча