Nine Inch Nails
Fragile
La Mer
Transcribed By---====---
[email protected]

--====--

Just a little info on La Mer, La Mer is actually French, when translated to English La Mer means "The Sea".

This tab is very difficult to get used to, but once you get it down it sounds smooth.
These three sections are all played within a couple of seconds from one another.

e|----10----8-------------------------------------------------------------------------------------------------------------------------------------------------------------------------------------------|
b|-8------8--------------8------8---------------8-------------------------------------------------10---8-8-----------------11------------------------------------------------8--------------------------|
g|--------------10-10--------------------------------------------------------------------------------------------10-10--9--------------12---------------------------------------------------------------|
a|----------------------------------------------8------8-----7--8-10--7-----------10-8-10-------------------------------------------------10-----------------------10-12------8----8--10-8--10----------|
d|----------------------------10-----10-------------------------------------8----------------------------------------------------------------------10--10-------10--------------------------------------|
e|------------------------------------------------------------------------------------------------------------------------------------------------------------------------------------------------------|

e|----10---8----------------------------------------------------------------------10-------10----------------------------------------------------------------|
b|--8----8-------------8-8------------10--10-8------------11-10-------------------^10-----^10----------------------------------------------------------------|
g|-------------10-10-------------------------------------------------10-10-----------------------------------------------------------------------------------|
a|---------------------------------10------------10--10------------------------------------------------------------------------------------------------------|
d|-----------------------------------------------------------------------------------------------------------------------------------------------------------|
e|-----------------------------------------------------------------------------------------------------------------------------------------------------------|

e|---10---8--------------------------------8----------8---------8---------8-----------------8---------------------------------------------------------------------|
b|-8----8------8---10--11--10-------------------------------------------------------------------------------------------------------------------------------------|
g|----------------------------------10-10------10^-------^10------^10--------^10--------------------^10-----------fade-->-->->--drum solo----------------------|
a|----------------------------------------------------------------------------------------------------------------------------------------------------------------|
d|----------------------------------------------------------------------------------------------------------------------------------------------------------------|
e|------------------------------------------------------------------------------------------------------------------------------------------------------------------------------|

enjoy, I worked hard on this one

--====--
[email protected]




Ваше мнение



Капча