I like this song, and it is good. This is the bass tab. Yup.
I think it sounds best in drop C... you can also play on a 5 string without
downtuning (obviously)... Yup...

Tune to drop C (C A D G)

Cello part:

G|---------------------------------------------------------
D|---10--13--15--13--15------------------------------------
A|------------------------11--13~--------------------------
C|---------------------------------------------------------

Main Riff:

G|------------------------------|
D|-----------------------------o|
A|--1-2-3---------1-2-3--------o|
C|--------0--3---0--------------|




Ваше мнение



Капча