I use drop D tuning for this one.
It will help out a lot in the chous.
Intro / Verse
Verse is relatively freestyle with the piano.
It alternates around 2 different patterns.
E----------------|----------|--------10--|
B----------------|-------5--|------------|
G--------10~~----|-----7----|------9-----|
D------9------9--|---7------|----9-------|
A----9-----------|-5--------|--7---------|
D--9-------------|----------|------------|

E----------------|----------|------------|
B----------------|----------|------------|
G------10~~~~----|------7---|------9-----|
D-------------9--|----7---7-|----9---9---|
A----9-----------|--5-------|--7---------|
D--9-------------|----------|------------|
Chorus
Very metered, with bass adding alternating 8th notes.
E------------------|-----------------|-----------------|-----------------|
B------------------|-----------------|-----------------|-----------------|
G------------------|-----------------|-----------------|-----------------|
D--7-7-7-7-7-7-7-7-|-7-7-7-7-7-7-7-7-|-7-7-7-7-7-7-7-7-|-7-7-7-7-7-7-7-7-|
A--7-7-7-7-7-7-7-7-|-9-9-9-9-9-9-9-9-|-5-5-5-5-5-5-5-5-|-5-5-5-5-5-5-5-5-|
D--7-7-7-7-7-7-7-7-|-9-9-9-9-9-9-9-9-|-5-5-5-5-5-5-5-5-|-0-0-0-0-0-0-0-0-|
Qustions or comments: [email protected]




Ваше мнение



Капча